Anjos Na Rebeldia

1Kilo

Am5-
123
X01210
Bb7
34
X13131
Bb7(13)
1234
6X678X
D7
123
XX0212
Eb7M
1234
XX1333
F7
34
131211
Gm
34
355333
Tom: G
[Intro]  Gm  Bb7(13)  Eb7M  Am5-  D7  Gm  F7  Bb7  D7
         Gm  Bb7(13)  Eb7M  Am5-  D7  Gm  F7  Bb7  D7


#1t1##1t2#E|-10---10-8----8----8------10/13--10-------|
B|------------11---11--11-------------------|
G|------------------------------------------|
D|------------------------------------------|
A|------------------------------------------|
E|------------------------------------------|#/1t2##/1t1#

#2t1##2t2#E|--10-8----8----8--------------------------|
B|--------11---11--11-10-8------------------|
G|------------------------------------------|
D|------------------------------------------|
A|------------------------------------------|
E|------------------------------------------|#/2t2##/2t1#

#3t1##3t2#E|-10-8----8----8----------10/13--10---8----|
B|-------11---11--11------------------------|
G|------------------------------------------|
D|------------------------------------------|
A|------------------------------------------|
E|------------------------------------------|#/3t2##/3t1#

Gm              Bb7(13)
Amanheceu o dia, anjos na rebeldia
Eb7M                   Am5-     D7
Cobrindo o céu e não deixando ninguém ver o azul
Gm            F7
Se eu ainda permaneço meu bem
Bb7                   D7
Se eu ainda te enlouqueço esquece tudo e vem
Gm              Bb7(13)
Amanheceu o dia, anjos na rebeldia
Eb7M                   Am5-     D7
Cobrindo o céu e não deixando ninguém ver o azul
Gm            F7
Se eu ainda permaneço meu bem
Bb7                   D7
Se eu ainda te enlouqueço esquece tudo e vem

Gm              Bb7(13)
   Lembro do café que você passava
Eb7M               Am5-    D7
antes de ir pro trabalho meu amor
Gm          F7
Uma casa com pé de goiaba
Bb7               D7
bem nas costas do cristo redentor
Gm        Bb7(13)
Um real de pão,quando passava
Eb7M            Am5-    D7
Com um megafone dizendo o sabor
Gm             F7
que a vida tem após a madrugada
Bb7              D7
Um samba boêmio de trabalhador

Gm  Bb7(13)  Eb7M  Am5-  D7  Gm  F7  Bb7  D7

[Solo]

#4t1##4t2#E|-----------------------------14/16\14-----|
B|-------11--13--13/15----------------------|
G|---12-----------------12-12---------------|
D|--12--------------------------------------|
A|------------------------------------------|
E|------------------------------------------|#/4t2##/4t1#

#5t1##5t2#E|------------------------------------------|
B|---15-13-15---------------------15--------|
G|------------15-14-12---12-14-15-----------|
D|------------------------------------------|
A|------------------------------------------|
E|------------------------------------------|#/5t2##/5t1#

#6t1##6t2#E|--13/11--11/9---9/8-----------------------|
B|---15/13--13/11--11/10--------------------|
G|------------------------------------------|
D|------------------------------------------|
A|------------------------------------------|
E|------------------------------------------|#/6t2##/6t1#

Gm              Bb7(13)
Amanheceu o dia, anjos na rebeldia
Eb7M                   Am5-     D7
Cobrindo o céu e não deixando ninguém ver o azul
Gm            F7
Se eu ainda permaneço meu bem
Bb7                   D7
Se eu ainda te enlouqueço esquece tudo e vem
Gm              Bb7(13)
Amanheceu o dia, anjos na rebeldia
Eb7M                   Am5-     D7
Cobrindo o céu e não deixando ninguém ver o azul
Gm            F7
Se eu ainda permaneço meu bem
Bb7                   D7
Se eu ainda te enlouqueço esquece tudo e vem

        Gm          Bb7(13)
Ela chamou eu vim,pra sambar neguim
     Eb7M                     Am5-  D7
Tô querendo a Vera, nada é demais pra mim
     Gm                      F7
Chega de "Mansin", mas se ela pede é sim
       Bb7                      D7
Sangue pulsa forte ao som de um tamborim
         Gm               Bb7(13)
Tô sem pressa de chegar,esperando o sol nascer
      Eb7M               Am5-         D7
Toda manhã, todo amanhã,quero acordar com você
         Gm                  F7
Deixa o tempo te mostrar porque é preciso saber
 Bb7          D7
Viver... É ser feliz agora

Gm                        Bb7(13)
   Esperando o 397 sob o chuvisco do meu
         Eb7M                                  Am5-
Sorriso moleque.Amanhã eu gravo minha primeira track
       D7              Gm
Ontem eu sonhei que vivia de rap
                          F7
Meu pai me escuta,meu coração que imitava um boom bap
             Bb7                      D7
Meu irmão no UPA, quantos pivete de canivete
                               Gm
Na feira da glória vendíamos fruta
          Bb7(13)       Eb7M
Ela me olhou com seus olhos
Am5-    D7
De quem sabe amar
Gm             F7
 Oque é que tem, eu te devoro
Bb7   D7
  Após me decifrar

Gm              Bb7(13)
Amanheceu o dia, anjos na rebeldia
Eb7M                   Am5-     D7
Cobrindo o céu e não deixando ninguém ver o azul
Gm            F7
Se eu ainda permaneço meu bem
Bb7                   D7
Se eu ainda te enlouqueço esquece tudo e vem
Gm              Bb7(13)
Amanheceu o dia, anjos na rebeldia
Eb7M                   Am5-     D7
Cobrindo o céu e não deixando ninguém ver o azul
Gm            F7
Se eu ainda permaneço meu bem
Bb7                   D7
Se eu ainda te enlouqueço esquece tudo e vem

[Final] Gm  Bb7(13)  Eb7M  Am5-  D7  Gm  F7  Bb7  D7
Composição: Bruno Chelles / Pablo Martins / XamãColaboração e revisão: Selina AriasMarcos Paulojoao silvaLuiz Rocha