busca

Faça Desse Drama

5 a Seco

Tom: G
[verso]
---------------------------------7--5-------------------
----------------------0----------8--7-------------------
-------------0------0------------5--5-------------------
-----0-----0----0^2--------------5--5-------------------
-------0^2---------------0------------------------------
--------------------------------------------------------


--------------------------------------------------------
-------------------------------0---0--------------------
---------0----------0----------5---6--------------------
-------0---------2-------------4---5--------------------
---0^2------2^4----------------2---3--------------------
------------------------0-------------------------------


-------------------------------7--5---------------------
-------------------------------8--7---------------------
---------------0---------------5--3---------------------
---0-----0-0^2--------0--------5--3---------------------
-----0^2----------0^2-----0-----------------------------
--------------------------------------------------------

------------------2----2--------------------------------
---4--------------3----3--------------------------------
---3----------------------------------------------------
---2--------------2-------------------------------------
------------------2-------------------------------------
---1------0---0--------0--------------------------------


[curva do amor findar]

--------------------------------------------------------
-----5--5--5--5--5--5--5--5--3--3--3--3--3--3--3--3-----
-----2--2--2--2--2--2--2--2--4--4--4--4--4--4--4--4-----
-----5--5--5--5--5--5--5--5--2--2--2--2--2--2--2--2-----
-----4--4--4--4--4--4--4--4--3--3--3--3--3--3--3--3-----
--------------------------------------------------------


--------------------------------------------------------
-----7--7--7--7--7--7--7--7-------3--3-----2--2---------
-----6--6--6--6--6--6--6--6-------3--3-----2--2---------
-----5--5--5--5--5--5--5--5-------2--2-----1--1---------
----------------------------------3--3-----2--2---------
-----5--5--5--5--5--5--5--5-----------------------------



[faça disso a hora]


--------------------------------------------------------
-----5--5--5--5--5--5--5--5--3--3--3--3--3--3--3--3-----
-----2--2--2--2--2--2--2--2--4--4--4--4--4--4--4--4-----
-----5--5--5--5--5--5--5--5--2--2--2--2--2--2--2--2-----
-----4--4--4--4--4--4--4--4--3--3--3--3--3--3--3--3-----
--------------------------------------------------------


--------------------------------------------------------
-----7--7--7--7--7--7--7--7-------3--3-----2--2---------
-----6--6--6--6--6--6--6--6-------3--3-----2--2---------
-----5--5--5--5--5--5--5--5-------2--2-----1--1---------
----------------------------------3--3-----2--2---------
-----5--5--5--5--5--5--5--5-----------------------------


[queira cara ou não queira]

---------------------------------7--5-------------------
----------------------0----------8--7-------------------
-------------0------0------------5--5-------------------
-----0-----0----0^2--------------5--5-------------------
-------0^2---------------0------------------------------
--------------------------------------------------------


--------------------------------------------------------
-------------------------------0---0--------------------
---------0----------0----------5---6--------------------
-------0---------2-------------4---5--------------------
---0^2------2^4----------------2---3--------------------
------------------------0-------------------------------


-------------------------------7--5---------------------
-------------------------------8--7---------------------
---------------0---------------5--3---------------------
---0-----0-0^2--------0--------5--3---------------------
-----0^2----------0^2-----0-----------------------------
--------------------------------------------------------

------------------2----2--------------------------------
---4--------------3----3--------------------------------
---3----------------------------------------------------
---2--------------2-------------------------------------
------------------2-------------------------------------
---1------0---0--------0--------------------------------


[e ao voltar a caminhar]


--------------------------------------------------------
----------3---------3--------0-----------5--------------
----------4---------2--------2-----------2--------------
----------2---------1--------0-----------5--------------
---3--3---------------------------4-4-4-----------------
--------------1--1------3--3----------------------------


----------------------------------2--2---2-----2--------
---------3---3-----3--3-----------3--3---3-----3--------
---------4---2-----2--2-----------0--0---0-----0--------
---------2---1-----1--1---------------------------------
---3--3-------------------------------------------------
-------------1-----1--1----0--0-------------0-----------

--------------------------------------------------------
----------3---------3--------0-----------4--------------
----------4---------2--------2-----------2--------------
----------2---------1--------0-----------5--------------
---3--3---------------------------4-4-4-----------------
--------------1--1------3--3----------------------------


--------------------------------------------------------
---------3---3-----3--3--------3--3--3------------------
---------4---2-----2--2--------2--2--2------------------
---------2---1-----1--1--------1--1--1------------------
---3--3-------------------------------------------------
-------------1-----1--1--------1--1--1------------------

Clipes

Cifra Club Pro

Aproveite o Cifra Club com benefícios exclusivos e sem anúncios
7 dias grátis
Cifra Club Pro
Aproveite o Cifra Club com benefícios exclusivos e sem anúncios
7 dias grátis