busca

Gargalhadas

5 à Seco

Tom: C
E|-1-0---------------------------|
B|-----3-1--------1------0-------|
G|---------2---------------------|
D|-------------------------------|
A|-------------------------------|
E|-------------------------------|

enquanto segundo violão faz

E|---------------------------------|
B|---------1------3----------------|
G|---------0------5------4---------|
D|---------2------3------3---------|
A|---------0------5------5---------|
E|-----------------------3---------|

Intro 2x:
E|-------------------------------|
B|-------------------------------|
G|-------------------------------|
D|-----2---2------3-----5-5-5----|
A|-------3---3-5----5-2----------|
E|---5---------------------------|

E|----------------------|
B|----------------------|
G|----------------------|
D|----2---2-------------|
A|------3---3-5~------|
E|--5------------x------|

( Am7/9  C7M  C4/D  G7/13 )

Am7/9       C7M    Dm6
 Pra que buscar recaída,
    G/B  Am7/9
 Reviver o drama,
   C7M         Dm6
 Mexer na ferida?
Am7/9     C7M    Dm6        G/B
 Por onde se engana o coração
    Am7/9       C7M      Dm6
 Se encontra a saída pra vida

Am7/9     C7M          Dm6
 Tempo de ver que é maldade
     G/B   Am7/9       C7M       Dm6
 Martelar as horas no chão da saudade
Am7/9     C7M       Dm6    G/B
 Embora agora a contradição,
   Am7/9  C7M         Dm6    C#7M/9
 O tempo que pôs essa dor nessa conta
Am7/9
 É quem desconta
C7M                 B7        E7
 Passa e te aponta o ponto de...

(Intro)

( Am7/9  Em7  Dm6  G/B )

Sorrir mais
Soltar gargalhadas
Deixar pra trás
O que te entristece
Tece teus ais
Rir mais
Soltar gargalhadas
Deixar pra trás
O que te entristece
Tece teus ais

Clipes