busca

Ninguém Nem Eu

5 a Seco

Tom: A
Afinação: D A D G A D

Parte 1:

D|--------------------------------------------------------------------------|
A|-----------0----------0----------0----------0-----------------------------|
G|-------4h0--------0----------4h3--------6h4-------------------------------|
D|---4-4--------2-2---0----0-0--------0-0-----------------------------------|
A|--------------------------------------------------------------------------|
D|-0----------2----------4----------5---------------------------------------|
     Quem será que chega assim? Não é da minha rua

Parte 2:

D|--------------------------------------------0-----------------------------|
A|-----------0----------0----------0----------------------------------------|
G|-------4h0--------0----------3h0--------6h4-------------------------------|
D|---4-4--------2-2---0----0-0--------0-0-----------------------------------|
A|--------------------------------------------------------------------------|
D|-0----------2----------3----------5---------------------------------------|
                        Mas pode ser de outro planeta..

(Fica repetindo as partes 1 e 2 nas estrofes)

Refrão:

D|--------------------------------------------------------------------------|
A|-------0--------0--------0--------0--------0--------0--------0--------0---|
G|-----7--------6--------7--------6--------7--------6--------7--------6-----|
D|---8--------5--------8--------5--------8--------5--------8--------5-------|
A|----------6-----------------6-----------------6-----------------6---------|
D|-8-----------------8-----------------8-----------------8------------------|
   E minha rua encheu de vida, um amor tanto que até o meu coração duvida

D|--------------------------------------------------------------------------|
A|---------------------0-------------0--------0------------0---0------------|
G|-------------------6-------------4--------4------------0-----0------------|
D|-----------------4-------------2--------2------------1-------8------------|
A|---------------5-------------4--------3------------2---------6------------|
D|--------------------------------------------------------------------------|
Quem será essa mulher que sorriu assim  e descobriu em mim     o que ninguém nem eu sabia?

Clipes

Cifra Club Pro

Aproveite o Cifra Club com benefícios exclusivos e sem anúncios
Cifra Club Pro
Aproveite o Cifra Club com benefícios exclusivos e sem anúncios