busca

Pensando Bem

5 à Seco

Tom: G
[parte 1]

G
Pensando bem
Melhor assim
G
Você e eu
Até pensei

[parte 2]
[riff 1]          C7M
Que não era pra acabar
[riff 2]       G
Você faz muita falta
[riff 1]         C7M
Dá saudade de lembrar
[riff 2]         G
De onde a gente iria
[riff 1]          C7M
Tanta coisa pra viver
[riff 2]            G
Que a gente nem dormia
[riff 1]           C7M
Canto pra me convencer
[riff 2]       G
A encarar os dias


[parte 1] + variação na letra

G
Nem paro pra pensar
Tanto pra resolver
G
Carreira pra traçar

[parte 2]
         [riff 1]C7M
Festa e chá de bebê
         [riff 2]G    [riff 1]
Nem mais me sinto só
C7M        [riff 2]G  [riff 1]
Quando a saudade vem
C7M        [riff 2]G  [riff 1]
Nem lembro mais de nós
C7M        [roff 2]G  [riff 1]
Melhor assim, meu bem

[repete]

[parte 1]

G
Pensando bem (nem paro pra pensar)
Melhor assim (tanto pra resolver)
G
Você e eu (carreira pra traçar)
Até pensei (festa e chá de bebê)

[parte 2]

[riff 1]         C7M
Que não era pra acabar (não mais me sinto só)
[riff 2]         G
Você faz muita falta
[riff 1]         C7M
Dá saudade de lembrar (quando a saudade vem)
[riff 2]         G
De onde a gente iria
[riff 1]         C7M
Tanta coisa pra viver (nem lembro mais de nós) 
[riff 2]         G
Que a gente nem dormia
[riff 1]         C7M
Canto pra me convencer (melhor assim, meu bem)
[riff 2]      G
A encarar os dias


[tablatura]


[parte 1]


    G
E|----------x------|
B|----------x------|
G|------02-2x--2h4-|
D|---0h2-0-0x-0----|
A|--2-------x------|
E|-3-----3--x3-----|

[parte 2]             + [riff 1]

    G
E|-----------------| |---------------------|
B|-----------------| |---------------------|
G|-0-0x--0---------| |--44-22-00-----------|
D|-0-0x-0----------| |---------------------|
A|-----------------| |---------------------|
E|-3--x3--3--------| |---------------------|

    C7M                + [riff 2]
E|-----------------| |---------------------|
B|-----------------| |---------------------|
G|--0-0x--0--------| |----0h4p0h2----------|
D|--2-2x-2---------| |-0h2-----------------|
A|--3--x3--3-------| |---------------------|
E|-----------------| |---------------------|

Clipes