busca

Veio Pra Ficar

5 a Seco

Tom: C
[Intro]

E|--------------------|
B|-0h1--0-------------|
G|-0h2--0-----0----0--|
D|------------0h2--0--|
A|--------------------|
E|--------------------|

E|--------------------|
B|-1--1---------------|
G|-2--0---------------|
D|--------------------|
A|--------------------|
E|--------------------|

E|--------------------|
B|-0h1--0-------------|
G|-0h2--0-----0----0--|
D|------------0h2--0--|
A|--------------------|
E|--------------------|

E|----0---------------|
B|-1--1---------------|
G|-2------------------|
D|--------------------|
A|--------------------|
E|--------------------|

E|--------------------|
B|-0h1--0-------------|
G|-0h2--0-----0----0--|
D|------------0h2--0--|
A|--------------------|
E|--------------------|

E|-0------------------|
B|-1--3---------------|
G|----4---------------|
D|--------------------|
A|--------------------|
E|--------------------|

            FM7                       Em5+
Tanto pra dizer que o pensamento me calou a voz
               Dm7(9)
Aumento meus momentos nos porões
                       G7(13)    G7
Bato o tormento quando ele se impõe
                    FM7
Se não é dito para vento
                               E7M(5+)
Tento crer sentimento não é de fato real
                    FM7             B4(7)
Vou digerindo a agonia e tudo passa no final
                    FM7     G7(9-)           Am7(9)
Me interessa a companhia, a paz e o cartão postal

FM7             Em5+
Mas o que somos nós?
            Dm7(9)            G7(13)  G7
São tantos sinais, somos tão sós
FM7             Em5+
Mas o que somos nós?
            Dm7(9)            D7/A
São tantos sinais, somos tão sós

               FM7
Tanto pra entender e os contra tempos
        Em5+
Que não param mais
              Dm7(9)
Eu não dedico tempo aos temporais
                      G7(13)   G7
Dai não tem porque portar punhais
                        FM7
E quanto mais a gente esquenta ou tenta achar
                       E7M(5+)
Mais inventa com o que se preocupar

                     FM7
O que importa é a alegria
                     B4(7)
Mostrar que veio pra ficar
                      FM7   G7(9-)    Am7(9)
Se hospedar no dia a dia e não se acomodar

FM7             Em5+
Mas o que somos nós?
            Dm7(9)            G7(13) G7
São tantos sinais, somos tão sós
FM7             Em5+
Mas o que somos nós?
            Dm7(9)            C5/A
São tantos sinais, somos tão sós

 FM7       Am7            FM7
Houhoô houhoô aiaiaiaiaiaiaiai
        A5(9)
Houhoô  ôôôôô

Clipes

Cifra Club Pro

Aproveite o Cifra Club com benefícios exclusivos e sem anúncios
7 dias grátis
Cifra Club Pro
Aproveite o Cifra Club com benefícios exclusivos e sem anúncios
7 dias grátis