busca

Chiquitita

ABBA

Tom: A
[Intro]

E|----------------------------------------------------------------------|
B|---2---3---5---7---9---10--10/12~--10^12^10---9---7---9---10---7---5--|
G|--2---4---6---7---9---11---11/13~--11--------9---7---9---11---7---4---|
D|-----------------------------------------------------------------6----|
A|----------------------------------------------------------------------|
E|----------------------------------------------------------------------|

E|----------------------------------------------------------------------|
B|-0--2--3--3--3--2--0--------3-------2---------------------------------|
G|-1--2--4--4--4--2--1------2-------2-----------------------------------|
D|------------------------2-------2-------------------------------------|
A|----------------------0-------0---------------------------------------|
E|----------------------------------------------------------------------|

Asus4               A           Asus4   A
Chiquitita, tell me what's wrong
                    E           Esus4  E
You're enchained by your own sorrow
E    D       E             E7          A      Asus4   A
I...in your eyes there is no hope for tomorrow
Asus4                A          Asus4  A
How I hate to see you like this
         Asus4  C#m            C#add9  C#m  C#add9
There is no way you can deny it
E  D      E           E7    A            Asus4   A
I... can see that you're oh so sad, so quiet
Asus4               A           Asus4   A
Chiquitita, tell me the truth
                E             Esus4  E
I'm a shoulder you can cry on
E    D   E               E7      A          Asus4  A
Yo...ur best friend, I'm the one you must rely on
Asus4               A           Asus4   A
You were always sure of yourself
         Asus4  C#m            C#add9  C#m  C#add9
Now I see you've broken a feather
E  D   E      E7       A              Asus4   A
I... hope we can patch it up together

A                       D
Chiquitita, you and I know 
D                                                            A
How the heartaches come and they go and the scars they're leaving
                       E             D         E
You'll be dancing once again and the pain will end
         E7      A
You will have no time for grieving
A                      D
Chiquitita, you and I cry 
D                                   A
But the sun is still in the sky and shining above you
                          E             D     E
Let me hear you sing once more like you did before
E7               A
Sing a new song, Chiquitita
             E             D      E           E7        A         Asus4  A
Tr...y once more like you did before, sing a new song, Chiquitita

Asus4               A           Asus4   A
So the walls came tumbling down 
                    E           Esus4  E
your love's a blown out candle
E   D      E           E7          A      Asus4   A
A...ll is gone and it seems too hard to handle
Asus4                A       Asus4  A
Chiquitita, tell me the truth
         Asus4  C#m            C#add9  C#m  C#add9
There is no way you can deny it
E  D  E           E7    A            Asus4   A
I... see that you're oh so sad, so quiet

A                       D
Chiquitita, you and I know 
D                                                            A
How the heartaches come and they go and the scars they're leaving
                       E             D         E
You'll be dancing once again and the pain will end
         E7      A
You will have no time for grieving
A                      D
Chiquitita, you and I cry 
D                                   A
But the sun is still in the sky and shining above you
                          E             D     E
Let me hear you sing once more like you did before
E7               A
Sing a new song, Chiquitita
A           E             D      E           E7        A         Asus4  A
Tr...y once more like you did before, sing a new song, Chiquitita
A           E             D      E           E7        A
Tr...y once more like you did before, sing a new song, Chiquitita

Clipes