busca

Chiquitita

ABBA

Tom: A
Intro:
E|-----------------------------------|
B|----2---3---5---7---9---10-10/12~--|
G|--2---4---6---7---9---11---11/13~--|
D|-----------------------------------|
A|-----------------------------------|
E|-----------------------------------|

E|--------------------------------------------------------|
B|10^12^10----9-7/9---10---7---5----0-2-3--3--3-2-0-2-----|
G|11--------9---7/9---11---7---4----0-2-4--4--4-2-0-2-----|
D|-----------------------------6--------------------------|
A|--------------------------------------------------------|
E|--------------------------------------------------------|

A#4                         A      A#4 A
Chiquitita, tell me what's wrong.
A                        E
You're enchained by your own sorrow.
E     D       E             E7      A     A#4    A
I-i-i-in your eyes there is no hope for tomorrow
A#4                       A    A#4  A
How I hate to see you like this.
A#4           C#º   C#9  C#º  C#9
There is no way you can deny it.
E     D     E               E7    A    A#4 A
I-I-I-I can see that you're oh so sad,so quiet.

A#4                       A     A#4  A
Chiquitita, tell me the truth.
A                      E       F4   E
I'm a shoulder you can cry on,
E  D      E               E7      A     A#4  A
Your best friend, I'm the one you must rely on.
A#4                        A   A#4  A
You were always sure of yourself.
A#4            C#º     C#9     C#º C#9
Now I see you've broken a feather.
E     D E           E7       A
I-I-I-I hope we can patch it up together.

Refrão:
                      D
Chiquitita, you and I know
D
how the heartaches come and they go
         A
And the scars they're leavin'.
                       E             D        E
You'll be dancin'once again and the pain will end
         E7      A
You will have no time for grievin'.
                       D
Chiquitita, you and I cry but the sun is
                      A
still in the sky And shinin' above you.
                          E              D    E
Let me hear you sing once more like you did before
       E7        A
Sing a new song, Chiquitita.

Solo 1:
         E             D     E
Try once more like you did before,
       E7        A
sing a new song, Chiquitita.

A#4                          A      A#4 A
So the walls came tumblin' downand
A              E
Your love's a blown out candle.
 E    D      E                E7   A    A#4  A
A|-l-l-l is gone and it seems too hard to handle
A#4                   A      A#4 A
Chiquitita, tell me the truth.
A                E              F4   E
There is no way you can deny it.
E     D  E                 E7       A  A#4    A
I-I-I-I see that you're oh so sad, so quiet

(Refrão)

Clipes