Dirty Deeds Done Dirt Cheap

AC/DC

Tom: G
[Intro/Riff 1]

#1t1##1t2#E|-------------------------------|
B|--------------3----------------|
G|--------2-----2----------------|
D|--------2-----0----------------|
A|-2-5-2--0--2----2--------------|
E|-0-3-0-----0----0--------------|#/1t2##/1t1#

[Riff 2]

#2t1##2t2#E|---------------------------|
B|---------------------------|
G|---7--7/9-9----------------|
D|---7--7/9-9----------------|
A|---5--5/7-7----------------|
E|---------------------------|#/2t2##/2t1#

[Refrão]

#3t1##3t2#E|-------------------------------|
B|-------------------------------|
G|-2--2---2----------------------|
D|-2--2---2----------------------|
A|-0--0---0----------------------|
E|------3------------------------|#/3t2##/3t1#

#4t1##4t2#E|-------------------------------|
B|-------3-----------------------|
G|-------2-----------------------|
D|-2--2--0-----------------------|
A|-2--2----2---------------------|
E|-0--0----0---------------------|#/4t2##/4t1#

#5t1##5t2#E|-------------------------------|
B|-------------------------------|
G|-2--2---2----------------------|
D|-2--2---2----------------------|
A|-0--0---0----------------------|
E|------3------------------------|#/5t2##/5t1#

#6t1##6t2#E|-------------------------------|
B|-------------------------------|
G|-------------------------------|
D|-2-----------------------------|
A|-2-----------------------------|
E|-0-----------------------------|#/6t2##/6t1#

[Riff 2]

#7t1##7t2#E|---------------------------|
B|---------------------------|
G|---7--7/9-9----------------|
D|---7--7/9-9----------------|
A|---5--5/7-7----------------|
E|---------------------------|#/7t2##/7t1#

[Refrão]

#8t1##8t2#E|-------------------------------|
B|-------------------------------|
G|-2--2---2----------------------|
D|-2--2---2----------------------|
A|-0--0---0----------------------|
E|------3------------------------|#/8t2##/8t1#

#9t1##9t2#E|-------------------------------|
B|-------3-----------------------|
G|-------2-----------------------|
D|-2--2--0-----------------------|
A|-2--2----2---------------------|
E|-0--0----0---------------------|#/9t2##/9t1#

#10t1##10t2#E|-------------------------------|
B|-------------------------------|
G|-2--2---2----------------------|
D|-2--2---2----------------------|
A|-0--0---0----------------------|
E|------3------------------------|#/10t2##/10t1#

#11t1##11t2#E|-------------------------------|
B|-------------------------------|
G|-------------------------------|
D|-2-----------------------------|
A|-2-----------------------------|
E|-0-----------------------------|#/11t2##/11t1#

[Solo]

#12t1##12t2#E|----------------------------------------|
B|--------------------10b12---------------|
G|7-7----9b10r9-9p7-7---------------------|
D|----9~~---------------------------------|
A|----------------------------------------|
E|----------------------------------------|#/12t2##/12t1#

#13t1##13t2#E|-----------------------------------------------|
B|-12-12-12-12-12-12-12-12-12-12-12-12-12-12-12--|
G|-x--x-x-x--x--x-x-x-x-x-x-x--x--x-x-x-x-x-x-x--|
D|-9--9-9-9--9--9-9-9-9---9-9--9--9-9-9----------|
A|-----------------------------------------------|
E|-----------------------------------------------|#/13t2##/13t1#

#14t1##14t2#E|7-10p7-9p7--------------------------|
B|-----------10p7-9p7-----------------|
G|--------------------7-7------7b9----|
D|---------------------9-9b10-9-------|
A|---------------------------9--------|
E|------------------------------------|#/14t2##/14t1#

#15t1##15t2#e|0-7p4-7p4-7p4-7p4-7p4-7p4-7p4-7p4-7p4|
B|-------------------------------------|
G|-------------------------------------|
D|-------------------------------------|
A|-------------------------------------|
E|-------------------------------------|#/15t2##/15t1#

#16t1##16t2#E|5-8p5-8p5-8p5-8p5-8p5-8p5-8-5-8p5-8p5-8-|
B|----------------------------------------|
G|----------------------------------------|
D|----------------------------------------|
A|----------------------------------------|
E|----------------------------------------|#/16t2##/16t1#

#17t1##17t2#E|6-9p6-9p6-9p6-9p6-9p6-9p6-9p6-9p6-9p6---|
B|----------------------------------------|
G|----------------------------------------|
D|----------------------------------------|
A|----------------------------------------|
E|----------------------------------------|#/17t2##/17t1#

#18t1##18t2#E|7-10p7-10-7p10p7-10p7-10p7-10p7-10p7-|
B|-------------------------------------|
G|-------------------------------------|
D|-------------------------------------|
A|-------------------------------------|
E|-------------------------------------|#/18t2##/18t1#

#19t1##19t2#E|8-11p8-11p8-11p8-11p8-11p8-11p8------|
B|-------------------------------------|
G|-------------------------------------|
D|-------------------------------------|
A|-------------------------------------|
E|-------------------------------------|#/19t2##/19t1#

#20t1##20t2#E|9-12p9-12p9-12p9-12p9-12p9-----------|
B|-------------------------------------|
G|-------------------------------------|
D|-------------------------------------|
A|-------------------------------------|
E|-------------------------------------|#/20t2##/20t1#

#21t1##21t2#e|10-13p10-13p10-13p10-13p10-13p10-13p10-|
B|---------------------------------------|
G|---------------------------------------|
D|---------------------------------------|
A|---------------------------------------|
E|---------------------------------------|#/21t2##/21t1#

#22t1##22t2#e|11-14p11-14p11-14p11-14p11-14p11-14p11-|
B|---------------------------------------|
G|---------------------------------------|
D|---------------------------------------|
A|---------------------------------------|
E|---------------------------------------|#/22t2##/22t1#

#23t1##23t2#e|12-15p12-15p12-15p12-15p12-15p12-15p12-|
B|---------------------------------------|
G|---------------------------------------|
D|---------------------------------------|
A|---------------------------------------|
E|---------------------------------------|#/23t2##/23t1#

#24t1##24t2#e|13-16p13-16p13-16p13-16p13-16p13-16p13-|
B|---------------------------------------|
G|---------------------------------------|
D|---------------------------------------|
A|---------------------------------------|
E|---------------------------------------|#/24t2##/24t1#

#25t1##25t2#e|14-17p14-17p14-17p14-17p14-17p14-17p14-17-17b19-|
B|------------------------------------------------|
G|------------------------------------------------|
D|------------------------------------------------|
A|------------------------------------------------|
E|------------------------------------------------|#/25t2##/25t1#

[Riff 2]

#26t1##26t2#E|---------------------------|
B|---------------------------|
G|---7--7/9-9----------------|
D|---7--7/9-9----------------|
A|---5--5/7-7----------------|
E|---------------------------|#/26t2##/26t1#

[Refrão]

#27t1##27t2#E|-------------------------------|
B|-------------------------------|
G|-2--2---2----------------------|
D|-2--2---2----------------------|
A|-0--0---0----------------------|
E|------3------------------------|#/27t2##/27t1#

#28t1##28t2#E|-------------------------------|
B|-------3-----------------------|
G|-------2-----------------------|
D|-2--2--0-----------------------|
A|-2--2----2---------------------|
E|-0--0----0---------------------|#/28t2##/28t1#

#29t1##29t2#E|-------------------------------|
B|-------------------------------|
G|-2--2---2----------------------|
D|-2--2---2----------------------|
A|-0--0---0----------------------|
E|------3------------------------|#/29t2##/29t1#

#30t1##30t2#E|-------------------------------|
B|-------------------------------|
G|-------------------------------|
D|-2-----------------------------|
A|-2-----------------------------|
E|-0-----------------------------|#/30t2##/30t1#

[Final]

#31t1##31t2#E|-------------------------------|
B|---------------3---------------|
G|--------2------2---------------|
D|--------2------0---------------|
A|-2-5-2--0--2-2---2-------------|
E|-0-3-0-----0-0---0-------------|#/31t2##/31t1#
Composição: Angus Young / Bon ScottColaboração e revisão: Marcos Paulo