Hells Bells

AC/DC

A4
123
X02230
A5
12
X022XX
Am7
12
X02010
B5+
12
X2100X
C5
134
X355XX
D
123
XX0232
D5
134
X577XX
D5(9)
134
X579XX
E
123
022100
E5
12
022XXX
G
123
320003
G5
134
355XXX
Tom: G
#1t1#Riff 1:
  A5       A4       A4         A4
#1t2#E|---------------------------------------|       ------|
B|---------------------------------------|             |
G|---9-----7---------5----------7--------|             |
D|------7------7--------5----------7-----|             |
A|-0--------------0---------0----------0-|             |
E|---------------------------------------|             |
                                                       | (5x)#/1t2##/1t1#
#2t1#  A5       A4         C5 B5+              
#2t2#E|---------------------------------------|             |
B|---------------------------------------|             |
G|---9-----7---------5----------7--------|             |
D|------7------7--------5-------7--5--5--|             |
A|-0--------------0---------0------3--2--|             |
E|---------------------------------------|      -------|#/2t2##/2t1#

#3t1#  A5       A4       Am7         A4
#3t2#E|---------------------------------------|
B|---------------------------------------|
G|---9-----7---------5----------7--------|
D|------7------7--------5----------7-----|
A|-0--------------0---------0----------0-|
E|---------------------------------------|#/3t2##/3t1#

#4t1#  A5       A4          G           D  C5 B5+
#4t2#E|---------------------3----3------2-------|
B|---------------------3----3--x---3-------|
G|---9-----7-----------0----3--x---2-------|
D|------7------7-------0----0--x---0--5--5-|
A|-0--------------0-------------------3--2-|
E|---------------------3----3--3-----------| #/4t2##/4t1#

#5t1#Riff 2(variação):
  A5        A5  D5(9)            C5 B5+
#5t2#E|-------------x---------------------------|
B|-------------x---------------------------|
G|----9--7--9--x--7--5---7--x--x--7--------|      (2x)
D|-2--7--7--7--x--7--5---7--7--7--7--5---5-|
A|-0-----------x--5--5---5--5--5--5--3---2-|
E|-------------x---------------------------|#/5t2##/5t1#


#6t1#Riff 3:
  D5(9)                      C5   G5
#6t2#E|-----------------------------------------|
B|----3--0--3--3--0--3-----3---------------|
G|-2--2--0--2--2--0--2-----2---------------|     (4x)
D|-0-----0--0--0--0--0-----0--5------------|
A|-----------------------0----3---5--------|
E|--------------------------------3--------|#/6t2##/6t1#

I'm rolling thunder, pouring rain
I'm coming on like a hurricane
My lightning's flashing across the sky
You're only young, but you're gonna die


#7t1#Riff 4:
   D5(9)                                     G
#7t2#E|-----------2----2-----2------2--2----------3----|
B|-----3-----3----3--3--3------3--3-----5----3----|
G|-----2--0--2----2--0--2------2--2--0--5----0----|
D|--0--0--0--0----0--0--0------0--0--0--5----0----|     (2x)
A|--------------------------------------3---------|
E|-------------------------------------------3----|#/7t2##/7t1#

I won't take no prisoners, won't spare no lives
Nobody's putting up a fight

#8t1#Riff 5:
  E5                       D5 A5
#8t2#E|-------------------------------|
B|-------------------------------|
G|-------------------------------|
D|-9-7-9---9-7-9---9-7-9---7-----|
A|-7-7-7---7-7-9---7-7-9---5--7--|
E|-0-------0-------0----------5--|#/8t2##/8t1#

#9t1#   E5                     G5
#9t2#E|-------------------------3-----|
B|-------------------------3-----|
G|-------------------------0-----|
D|-9-7-9---9-7-9---9-7-9---0-----|
A|-7-7-7---7-7-9---7-7-9---2-----|
E|-0-------0-------0-------3-----|#/9t2##/9t1#

I got my bell, I'm gonna take you to hell
I'm gonna get ya, Satan get ya

#10t1#Riff 1:
  A5       A4       Am7         A4
#10t2#E|---------------------------------------|
B|---------------------------------------|
G|---9-----7---------5----------7--------|
D|------7------7--------5----------7-----|
A|-0--------------0---------0----------0-|
E|---------------------------------------|#/10t2##/10t1#

#11t1#  A5       A4       Am7        A4  C5 B5+
#11t2#E|---------------------------------------|
B|---------------------------------------|
G|---9-----7---------5----------7--------|
D|------7------7--------5-------7--5--5--|
A|-0--------------0---------0------3--2--|
E|---------------------------------------|#/11t2##/11t1#

#12t1#  A5       A4       Am7         A4
#12t2#E|---------------------------------------|
B|---------------------------------------|
G|---9-----7---------5----------7--------|
D|------7------7--------5----------7-----|
A|-0--------------0---------0----------0-|
E|---------------------------------------|#/12t2##/12t1#

#13t1#  A5       A4          G           D  C5 B5+
#13t2#E|---------------------3----3------2-------|
B|---------------------3----3--x---3-------|
G|---9-----7-----------0----3--x---2-------|
D|------7------7-------0----0--x---0--5--5-|
A|-0--------------0-------------------3--2-|
E|---------------------3----3--3-----------|#/13t2##/13t1#

Hells bells
Hells bells, you got me ringing
Hells bells, my temperature's high
Hells bells

#14t1#Riff 2:
  A5        A5  D5(9)            C5 B5+
#14t2#E|-----------------------------------------|
B|--------------3--0--3-----3--------------|
G|----2--0--2---2--0--2-----2--------------|
D|-2--2--0--2---0--0--0-0-0-0-0--5---5-----|
A|-0—0--0--0-0-------------------3---2-----|
E|-----------------------------------------|#/14t2##/14t1#

I'll give you black sensations up and down your spine
If you're into evil, you're a friend of mine
See the white light flashing as I split the night
'Cos if good's on the left, then I'm sticking to the right

#15t1#Riff 4:
   D5(9)                                     G
#15t2#E|-----------2----2-----2------2--2----------3----|
B|-----3-----3----3--3--3------3--3-----5----3----|
G|-----2--0--2----2--0--2------2--2--0--5----0----|
D|--0--0--0--0----0--0--0------0--0--0--5----0----|     (2x)
A|--------------------------------------3---------|
E|-------------------------------------------3----|#/15t2##/15t1#

I won't take no prisoners, won't spare no lives
Nobody's putting up a fight

#16t1#Riff 5:
  E5                       D5 A5
#16t2#E|-------------------------------|
B|-------------------------------|
G|-------------------------------|
D|-9-7-9---9-7-9---9-7-9---7-----|
A|-7-7-7---7-7-9---7-7-9---5--7--|
E|-0-------0-------0----------5--|#/16t2##/16t1#

#17t1#   E5                     G5
#17t2#E|-------------------------3-----|
B|-------------------------3-----|
G|-------------------------0-----|
D|-9-7-9---9-7-9---9-7-9---0-----|
A|-7-7-7---7-7-9---7-7-9---2-----|
E|-0-------0-------0-------3-----|#/17t2##/17t1#

I got my bell, I'm gonna take you to hell
I'm gonna get ya, Satan get ya

#18t1#Riff 1:
  A5       A4       Am7         A4
#18t2#E|---------------------------------------|
B|---------------------------------------|
G|---9-----7---------5----------7--------|
D|------7------7--------5----------7-----|
A|-0--------------0---------0----------0-|
E|---------------------------------------|#/18t2##/18t1#

#19t1#  A5       A4       Am7        A4  C5 B5+
#19t2#E|---------------------------------------|
B|---------------------------------------|
G|---9-----7---------5----------7--------|
D|------7------7--------5-------7--5--5--|
A|-0--------------0---------0------3--2--|
E|---------------------------------------|#/19t2##/19t1#

#20t1#  A5       A4       Am7         A4
#20t2#E|---------------------------------------|
B|---------------------------------------|
G|---9-----7---------5----------7--------|
D|------7------7--------5----------7-----|
A|-0--------------0---------0----------0-|
E|---------------------------------------|#/20t2##/20t1#

#21t1#  A5       A4          G           D  C5 B5+
#21t2#E|---------------------3----3------2-------|
B|---------------------3----3--x---3-------|
G|---9-----7-----------0----3--x---2-------|
D|------7------7-------0----0--x---0--5--5-|
A|-0--------------0-------------------3--2-|
E|---------------------3----3--3-----------|#/21t2##/21t1#

Hells bells
Hells bells, you got me ringing
Hells bells, my temperature's high
Hells bells

Hells bells, Satan's coming to you
Hells bells, he's ringing them now
Those hells bells, the temperature's high
Hells bells, across the sky
Hells bells, they're taking you down
Hells bells, they're dragging you down
Hells bells, gonna split the night
Hells bells, there's no way to fight
Hells bells

#22t1#Base Solo:
                  A5   A5
#22t2#E|-------------------|-------------------|------------------|
B|-------------------|-------------------|------------------|
G|----------------2--|--2----------------|------------------|
D|----------------2--|--2----------------|------------------|
A|----------------0--|--0----------------|------------------|
E|-------------------|-------------------|------------------|#/22t2##/22t1#

#23t1#      A5 G5 A5    E5  C5           D5     D5        A5 G5  A5       C5
#23t2#E|-----------------------|---------------------|------------------------|
B|-----------------------|---------------------|------------------------|
G|----2-----2---------5--|---------7------7----|-----2-----2---------5--|
D|----2-----2---------5--|---------7------7----|-----2-----2---------5--|
A|----0-----0---------3--|---------5------5----|--x--0-----0---------3--|
E|-------3b--------0-----|------0--------------|--------3b--------0-----|#/23t2##/23t1#

#24t1#          D5    D5 D5        A5 G5  A5        C5          D5    D5 D5
#24t2#E|----------------------|------------------------|----------------------|
B|----------------------|------------------------|----------------------|
G|---------7----7--7----|-----2-----2---------5--|---------7----7--7----|
D|---------7----7--7----|-----2-----2---------5--|---------7----7--7----|
A|---------5----5--5----|--x--0-----0---------3--|---------5----5--5----|
E|------0---------------|--------3b--------0-----|------0---------------|#/24t2##/24t1#

#25t1#       A5 G5  A5       C5           D5  D5 D5      A5  A5 D5 A5   A5 D5 A5
#25t2#E|------------------------|----------------------|-------------------------|
B|------------------------|----------------------|--3--3-----3----3-----3--|
G|-----2-----2---------5--|---------7----7--7----|--2--2--0--2----2--0--2--|
D|-----2-----2---------5--|---------7----7--7----|--0--0--0--0----0--0--0--|
A|--x--0-----0---------3--|---------5----5--5----|-------------------------|
G|--------3b--------0-----|------0---------------|-------------------------|#/25t2##/25t1#

#26t1#      A5 A5   C5    G5      A5 A5 D5 A5   A5 D5 A5      A5 A5   C5    G5
#26t2#E|------------------3----|-------------------------|------------------3----|
B|----3--3----------3----|--3--3-----3----3-----3--|----3--3----------3----|
G|----2--2-----5----0----|--2--2--0--2----2--0--2--|----2--2-----5----0----|
D|----0--0-----5----0----|--0--0--0--0----0--0--0--|----0--0-----5----0----|
A|-------------3---------|-------------------------|-------------3---------|
E|----------0-------3----|-------------------------|----------0-------3----|#/26t2##/26t1#

#27t1#       E                                  D               E
#27t2#E|-------------------------|--------------2---------|-------------------------|
B|-----9-----9----9--------|-----9--9-----3----2----|-----9-----9----9-----9--|
G|-----9--7--9----9--7--9--|-----9--9-----2----2----|-----9--7--9----9--7--9--|
D|-----9--7--9----9--7--9--|-----9--9-----0----2----|-----9--7--9----9--7--9--|
A|-----7--7--7----7--7--7--|-----7--7--0-------0----|-----7--7--7----7--7--7--|
E|--0--------0----------0--|--0-----0---------------|--0--------0-------------|#/27t2##/27t1#

#28t1#       E        G5         Riff 1:
#28t2#E|--------------3----3----|-------------------------|------------------------|
B|-----9--9-----3----3----|-------------------------|------------------------|
G|-----9--9-----0----0----|-----9-----7----------5--|----------7-------------|
D|-----9--9-----0----0----|--------7-------7--------|----5-----7----7--------|
A|-----7--7--0------------|--0----------------0-----|-------0----------0--0--|
E|--0--------0--3----3b---|-------------------------|------------------------|#/28t2##/28t1#

#29t1##29t2#E|------------------------|------------------------|-------------------------|
B|------------------------|------------------------|-------------------------|
G|----9-----7----------5--|----------7-------------|-----9-----7----------5--|
D|-------7-------7--------|----5-----7----5--5-----|--------7-------7--------|
A|------------------0-----|-------0-------3--2--0--|--0----------------0-----|
E|------------------------|------------------------|-------------------------|#/29t2##/29t1#

#30t1##30t2#E|------------------------|------------------------|------------------------|
B|------------------------|------------------------|------------------------|
G|----------7-------------|----9-----7----------5--|----5-----7-------------|
D|----5-----7----7--------|----7-----7----7-----5--|----5-----7----5--5-----|
A|-------0----------0--0--|-------0----------0--3--|----3--0--5----3--2--0--|
E|------------------------|------------------------|------------------------|#/30t2##/30t1#

#31t1##31t2#E|------------------------|------------------------|------------------------|
B|------------------------|------------------------|------------------------|
G|----9-----7----------5--|----------7-------------|----9-----7----------5--|
D|----7--7--7----7--------|----5----------7--------|----7-----7----7-----5--|
A|------------------0-----|-------0----------0--0--|-------0----------0--3--|
E|------------------------|------------------------|------------------------|#/31t2##/31t1#

                           
#32t1##32t2#E|------------------------|------------------------|------------------------|
B|------------------------|------------------------|------------------------|
G|----5-----7-------------|----9-----7----------5--|----------7-------------|
D|----5-----7----5--5-----|----7--7--7----7--------|----5----------7--------|
A|----3--0--5----3--2--0--|------------------0-----|-------0----------0--0--|
E|------------------------|------------------------|------------------------|#/32t2##/32t1#

#33t1##33t2#E|------------------------|------------------------|------------------------|
B|------------------------|------------------------|------------------------|
G|----9-----7----------5--|----5-----7----7--7--7--|-----2-----2---------5--|
D|----7-----7----7-----5--|----5-----7----7--7--7--|-----2-----2---------5--|
A|-------0----------0--3--|----3--0--5----5--5--5--|--x--0-----0---------3--|
E|------------------------|-------0----------------|--------3b--------0-----|#/33t2##/33t1#

#34t1##34t2#E|----------------------|------------------------|----------------------|
B|----------------------|------------------------|----------------------|
G|---------7----7--7----|-----2-----2---------5--|---------7----7--7----|
D|---------7----7--7----|-----2-----2---------5--|---------7----7--7----|
A|---------5----5--5----|--x--0-----0---------3--|---------5----5--5----|
E|------0---------------|--------3b--------0-----|------0---------------|#/34t2##/34t1#

#35t1##35t2#E|------------------------|----------------------|---------------------|
B|------------------------|----------------------|---------------------|
G|-----2-----2---------5--|---------7----7--7----|----2-------2--------|
D|-----2-----2---------5--|---------7----7--7----|----2-------2--------|
A|--x--0-----0---------3--|---------5----5--5----|----0-------0--------|
E|--------3b--------0-----|------0---------------|--------3b-----------|#/35t2##/35t1#

#36t1##36t2#E|--------------------|------------------|---------------------|
B|--------------------|------------------|---------------------|
G|--5--------7--------|------------------|----2-----2----------|
D|--5--------7--------|------------------|----2-----2----------|
A|--3--------5--------|------------------|----0-----0----------|
E|--------------------|------------------|-------3b------------|#/36t2##/36t1#


#37t1#Solo:
#37t2#E|--------------------------|------------5--------|
B|----8--7r-5---------------|------------5--7b-7--|
G|----7--7r----7--5b--------|---------------7b-7--|
D|-------------------7--5/7~|---------------------|
A|--------------------------|---------------------|
E|--------------------------|---------------------|#/37t2##/37t1#

#38t1##38t2#E|--------------------|------------------------|---------------------------|
B|----------7b--------|------------------------|---------------------------|
G|----------7b---x\---|------------------------|------------2---------7b---|
D|---------------x\---|-----5h7~-----4h5~------|--2h4-----x---4/7~---------|
A|---------------x\---|---x--------x-----------|------3p0------------------|
E|--------------------|------------------------|---------------------------|#/38t2##/38t1#

                               
#39t1##39t2#E|--------------------------|----------------------------|
B|----8-------8-8--8-8--8-8-|---8-8-------------7---5----|
G|-------7b---9-9--9-9--9-9-|---7b7r------5p0---7---5----|
D|--------------------------|-----------x-----7---7------|
A|--------------------------|----------------------------|
E|--------------------------|----------------------------|#/39t2##/39t1#

#40t1##40t2#E|--------------------------|------------------------------|
B|------8--------7--7~------|------8~---------10--10~------|
G|--7/9-9-9~---0-7--7~----5-|--7/9-9~----9/11-11--11~----9-|
D|--------------------------|------------------------------|
A|--------------------------|------------------------------|
E|--------------------------|------------------------------|#/40t2##/40t1#

#41t1##41t2#E|-----------------------------------------------------------|
B|-----13-------13-13-------13-13----------13----13----13----|
G|--14-14-12/14-14-14-13/14-14-14-13-13/14-14-14----14----14-|
D|-----------------------------------------------------------|
A|-----------------------------------------------------------|
E|-----------------------------------------------------------|#/41t2##/41t1#

#42t1##42t2#E|--12----12------10--10----x-----|--10~-------------------------|
B|--13----13------13b-13b-----x---|--13b---12r---10\---14/15-15~-|
G|-----14-----------------------x-|--------------------13/14-14~-|
D|--------------------------------|------------------------------|
A|--------------------------------|------------------------------|
E|--------------------------------|------------------------------|#/42t2##/42t1#

#43t1##43t2#E|----------------------------------|------------17--------17-------|
B|----13----15----15~---15~-15\-----|--15--17b---19--17b------17b---|
G|-------14-14-14-------14~-14\-----|-------------------------------|
D|-------------------------------16-|-------------------------------|
A|----------------------------------|-------------------------------|
E|----------------------------------|-------------------------------|#/43t2##/43t1#

#44t1##44t2#E|--17--17-------------------------|---------------------------17----|
B|--17b-17r-----15h18p15----15\----|--20----20--------20----------20-|
G|-----------------------16-----0--|--19b---19b---19b----19b---------|
D|---------------------------------|---------------------------------|
A|---------------------------------|---------------------------------|
E|---------------------------------|---------------------------------|#/44t2##/44t1#

#45t1##45t2#E|--------------------------------------17-|
B|--17-----------------------20b-20b-------|
G|-----19r-17----19-17b--------------------|
D|------------19-------19p17---------------|
A|-----------------------------------------|
E|-----------------------------------------|#/45t2##/45t1#

#46t1##46t2#E|--17-20p17----17----------20b---20b---|
B|-----------20b---20b20p17-------------|
G|--------------------------------------|
D|--------------------------------------|
A|--------------------------------------|
E|--------------------------------------|#/46t2##/46t1#

#47t1##47t2#E|--17--------------------------------------|
B|-----20p17--------------------------------|
G|-----------19b19----------17~---12/14~14\-|
D|-----------------19-16-19-----------------|
A|------------------------------------------|
E|------------------------------------------|#/47t2##/47t1#

#48t1##48t2#E|--------------------|
B|----------------19b-|
G|--------------------|
D|--------------------|
A|--------------------|
E|--------------------|#/48t2##/48t1#

#49t1##49t2#E|----17--------------------|------------------------|----17--------------------|
B|--------------------------|------------------------|--------------------------|
G|--------19b-19~-------17--|--------19~-----19--19b-|--------19b-19~-------17--|
D|--------------------------|------------------------|--------------------------|
A|--------------------------|------------------------|--------------------------|
E|--------------------------|------------------------|--------------------------|#/49t2##/49t1#

#50t1##50t2#E|------------------------|----17--------------------|----------------------|
B|------------------------|--------------------------|----------------------|
G|--------19~-----19--19b-|--------19b-19~-------17--|--------19~-------19b-|
D|------------------------|--------------------------|----------------------|
A|------------------------|--------------------------|----------------------|
E|------------------------|--------------------------|----------------------|#/50t2##/50t1#


#51t1##51t2#E|----17--------------------|------------------------|
B|----------------------20\-|------------------------|
G|--------19r---19~---------|------------------------|
D|--------------------------|------------------------|
A|--------------------------|------------------10\---|
E|--------------------------|--------17\-12\---------|#/51t2##/51t1#

#52t1##52t2#E|-------------------------------|-----------------------------|
B|-------------------------------|-----------------------------|
G|-------------------------------|-----------------------------|
D|-------------------------------|------------10/12~------10---|
A|-------12---10---12~-------12\-|----3----12-----------x------|
E|--0--x----x----x--------0------|-------x---------------------|#/52t2##/52t1#

#53t1##53t2#E|---------------------------|----------------------------------|
B|----10--10--10-------------|----------------------------------|
G|----12b-12--12b--------17--|------------------17--------------|
D|--------------------x------|----19--17h19---x----19~--19~19\--|
A|---------------------------|----------------------------------|
E|---------------------------|----------------------------------|#/53t2##/53t1#

#54t1##54t2#E|------------------------------|---17--------17------------------|
B|--x--10--10--10-----------20b-|------17-20b----17--20b---20\----|
G|--x--12b-12--12b---12\--------|-------------------------------0-|
D|------------------------------|---------------------------------|
A|------------------------------|---------------------------------|
E|-----------------------x------|---------------------------------|#/54t2##/54t1#

#55t1##55t2#E|----------------------17-------------------|
B|----20b--20b--20b--20b---20-17----------20-|
G|-------------------------------19r17-19b---|
D|-------------------------------------------|
A|-------------------------------------------|
E|-------------------------------------------|#/55t2##/55t1#

#56t1##56t2#E|---------------------------------------|---------------------|
B|---------20-20-20-20-20--------19-17---|--x\-----------------|
G|--19b-------19b19b19b19b-17~---19-17---|--x\-----------------|
D|----------------------------19---------|--x\------7p5--------|
A|---------------------------------------|--x\-----------------|
E|---------------------------------------|---------------------|#/56t2##/56t1#

#57t1##57t2#E|---------------------||
B|---------------------||
G|----2-----2----------||
D|----2-----2----------||
A|----0-----0----------||
E|-------3b------------||#/57t2##/57t1#
Composição: Angus Young / Brian Johnson / Malcolm YoungColaboração e revisão: Caroline LeroyFernando AlvesTiago
Videoaula Hells Bells (aula de guitarra)