Shoot to Thrill

AC/DC

A
123
X02220
A5
12
X022XX
C5
134
X355XX
D
123
XX0232
D5
134
X577XX
E7(9+)
134
0XX133
G
123
320003
G/B
123
X20033
G5
134
355XXX
Tom: G
[Intro] A5

#1t1#   A5
#1t2#E|------------------------------------------|
B|------------------------------------------|
G|-2-----2----------------------------------|
D|-2-----2----------------------------------|
A|-0-4-5-0----------------------------------|
E|------------------------------------------|#/1t2##/1t1#

[Opções]
[Ligados]

#2t1#    A5
#2t2#E|------------------------------------------|
B|------------------------------------------|
G|-2-----2----------------------------------|
D|-2-----2----------------------------------|
A|-0-4-5p0----------------------------------|
E|------------------------------------------|#/2t2##/2t1#

[Usando Menos Cordas]

#3t1#   A5
#3t2#E|------------------------------------------|
B|------------------------------------------|
G|------------------------------------------|
D|-2-----2----------------------------------|
A|-0-4-5-0----------------------------------|
E|------------------------------------------|#/3t2##/3t1#

[Antes da Primeira Parte]

#4t1#   A5
#4t2#E|------------------------------------------|
B|------------------------------------------|
G|-2-----2--2-2--2-2---2-2-2----------------|
D|-2-----2--2-2--2-2---2-2-2----------------|
A|-0-4-5-0--0-0--0-0---0-0-0----------------|
E|------------------------------------------|#/4t2##/4t1#

[Primeira Parte]

#5t1#   G5     D5      G5      D5      D5   A5
#5t2#E|-3--------------3-------------------------|
B|-3------3-------3-------3-------3---------|
G|-0------2-------0-------2-------2----2-2--|
D|-0------0-------0-------0-------0----2-2--|
A|---0-0--0--0-0-----0-0--0--0-0--0--4-0-0--|
E|-3--------------3-------------------------|#/5t2##/5t1#
   pm.     pm.     pm.     pm.

         G5   D5      G5        D5
All you women    who want a man of the street
A5            G5        D5      G5    D5
  But don't know which way you wanna turn
      A5     G5    D5      G5           D5
Just keep a-coming    and put your hand out to me
 A5         G5           D5          G5      D5  A5
Cos I'm the one who's gonna make you    burn

[Pré-Refrão]

#6t1#   C5 G5 C5             C5 G5 C5
#6t2#E|----3--------------------3----------------|
B|----3--------------------3----------------|
G|-5--0--5----5-5-5-----5--0--5-------------|
D|-5--0--5----5-5-5-----5--0--5-------------|
A|-3-----3----3-3-3-----3-----3-------------|
E|----3--------------------3----------------|#/6t2##/6t1#

#7t1#   D5 A5 D5 E7(9+)
#7t2#E|------------------------------------------|
B|------------9-9---9-9---9-9---9-9---9-9-9-|
G|-7--2--7----8-8---8-8---8-8---8-8---8-8-8-|
D|-7--2--7----6-6---6-6---6-6---6-6---6-6-6-|
A|-5--0--5----7-7---7-7---7-7---7-7---7-7-7-|
E|----------0-----0-----0-----0-----0-------|#/7t2##/7t1#

     C5    G5       C5              G5    C5
I'm gonna take you down, oh, down, down, down!
    D5        A5    D5
So don't you fool around
          E7(9+)
I'm gonna        pull it, pull it, pull the trigger

[Refrão]

#8t1#   A5       G5       D5
#8t2#E|----------3-------------------------------|
B|----------3--------3----------------------|
G|-2--------0--------2----------------------|
D|-2--------0--------0----------------------|
A|-0-----------------0----------------------|
E|----------3-------------------------------|#/8t2##/8t1#

[Opções]
(Mais toques nos acordes - comentário sobre a dinâmica)

#9t1# A5       G5       D5
#9t2#E|----------3-3-3-3-------------------------|
B|----------3-3-3-3--3-3-3-3-3--3--3-3-3----|
G|-2-2-2-2--0-0-0-0--2-2-2-2-2--2--2-2-2----|
D|-2-2-2-2--0-0-0-0--0-0-0-0-0--0--0-0-0----|
A|-0-0-0-0-----------0-0-0-0-0--0--0-0-0----|
E|----------3-3-3-3-------------------------|#/9t2##/9t1#

[Final do Refrão]

#10t1##10t2#E|------------------------------------------|
B|------------------------------------------|
G|-2--2--2----------------------------------|
D|-2--2--2----2-2-2-2-----------------------|
A|-0--0--0----5-3-4-0-----------------------|
E|------------------------------------------|#/10t2##/10t1#

A5                  G5
   Shoot to thrill,    play to kill
D5
   Too many women with too many pills
A5                  G5
   Shoot to thrill,    play to kill
          D5
I got my gun at the ready, gonna fire at will
 A5
Yeah

[Repetição da Primeira Parte]

         G5    D5    G5    D5
I'm like evil,    I get under your skin
      A5     G5      D5        G5     D5
Just like a bomb that's ready to blow
     A5     G5   D5    G5     D5
Cos  I'm illegal,   I got everything
     A5       G5    D5         G5     D5
That all you women might need to know

A5   C5    G5       C5              G5    C5
I'm gonna take you down, oh, down, down, down!
    D5        A5    D5
So don't you fool around
          E7(9+)
I'm gonna        pull it, pull it, pull the trigger

[Repetição do Refrão]

A5                  G5
   Shoot to thrill,    play to kill
D5
   Too many women with too many pills
A5                  G5
   Shoot to thrill,    play to kill
          D5
I got my gun at the ready, gonna fire at will
        A5                      G/B
Cos I shoot to thrill, and I'm ready to kill
   D5
I can't get enough, I can't get the thrill
A5                   G5             D5
  I shoot to thrill,   play to kill,   yeah

Pull the trigger!

( E7(9+) )

                   E7(9+)
Pull it, pull it, pull it, pull the trigger!

#11t1#   E7(9+)
#11t2#E|------------------------------------------|
B|---9-9---9-9---9-9---9-9---9-9------------|
G|---8-8---8-8---8-8---8-8---8-8------------|
D|---6-6---6-6---6-6---6-6---6-6--\x--------|
A|---7-7---7-7---7-7---7-7---7-7--\x--------|
E|-0-----0-----0-----0-----0----------------|#/11t2##/11t1#
                                 pick slash

[Solo 1]

#12t1#(Base 4x)
 G5 D5 G5 D5      A5
#12t2#E|-3-----3----------------------------------|
B|-3--3--3--3--3----2-2---------------------|
G|-0--2--0--2--2----2-2---------------------|
D|-0--0--0--0--0----0-0---------------------|
A|----0-----0-----4-------------------------|
E|-3-----3----------------------------------|#/12t2##/12t1#

[Solo]

#13t1##13t2#E|---------------------------------------------------|
B|--8~-7~-8~-7~--7--5--------8~-7~-8~-7~-7--5--------|
G|--7~-7~-7~-7~--7--5-----x--7~-7~-7~-7~-7--5-----x--|   (2x)
D|---------------------7--0--------------------7--0--|
A|---------------------------------------------------|
E|---------------------------------------------------|#/13t2##/13t1#

#14t1##14t2#E|-------15-------15-15------------------------------|
B|-15b17----15b17----15b17~-15b17r15p13----13--------|
G|--------------------------------------14-----------|
D|---------------------------------------------------|
A|---------------------------------------------------|
E|---------------------------------------------------|#/14t2##/14t1#

#15t1##15t2#E|-------15-------15--15----15\----------------------|
B|-15b17----15b17-----15b17-17\----------------------|
G|---------------------------------------------------|
D|---------------------------------------------------|
A|---------------------------------------------------|
E|---------------------------------------------------|#/15t2##/15t1#

#16t1##16t2#E|-------17-------17--------17----17----17---\-------|
B|-17b19----17b19----17b19~-17b19-17b19-17b19\-------|
G|---------------------------------------------------|
D|---------------------------------------------------|
A|---------------------------------------------------|
E|---------------------------------------------------|#/16t2##/16t1#

#17t1##17t2#E|---------------------------------------------------|
B|----12-12-----12-12-----12-12-----12-12-----12-12--|
G|----12-12-----12-12-----12-12-----12-12-----12-12--|
D|-14--------14--------14--------14--------14--------|
A|---------------------------------------------------|
E|---------------------------------------------------|#/17t2##/17t1#

[Repetição do Refrão]

    A5                  G5
Oh!    Shoot to thrill,    play to kill
D5
   too many women with too many pills
A5                  G5
   Shoot to thrill,    play to kill
          D5
I got my gun at the ready, gonna fire at will
        A5                      G/B
Cos I shoot to thrill, and I'm ready to kill
       D5
And I can't get enough, and I can't get the thrill
      A5             G5             D5
Cos I    shoot to thrill, play it again!

#18t1#     A
#18t2#E|------------------------------------------|
B|-14-14-14-14-14-14-14-14------------------|
G|-14-14-14-14-14-14-14-14------------------|
D|-14-14-14-14-14-14-14-14------------------|
A|------------------------------------------|
E|------------------------------------------|#/18t2##/18t1#

#19t1#    G
#19t2#E|------------------------------------------|
B|-15-15-15-15-15-15-15-15------------------|
G|-16-16-16-16-16-16-16-16------------------|
D|-17-17-17-17-17-17-17-17------------------|
A|------------------------------------------|
E|------------------------------------------|#/19t2##/19t1#

#20t1#    D
#20t2#E|------------------------------------------|
B|-15-15-15-15-15-15-15-15------------------|
G|-14-14-14-14-14-14-14-14------------------|
D|-0--0--0--0--0--0--0--0-------------------|
A|------------------------------------------|
E|------------------------------------------|#/20t2##/20t1#

#21t1#   A                    G
#21t2#E|------------------------------------------|
B|-2-2-2-2-2-2-2-2------3-3-3-3-3-3-3-3-----|
G|-2-2-2-2-2-2-2-2------4-4-4-4-4-4-4-4-----|  (2x)
D|-2-2-2-2-2-2-2-2------5-5-5-5-5-5-5-5-----|
A|------------------------------------------|
E|------------------------------------------|#/21t2##/21t1#

#22t1#   D             ↓ (passagem)
#22t2#E|------------------------------------------|
B|-3-3-3-3-3-3-3-3-3-3-3-3-3-3-3-3----------|
G|-2-2-2-2-2-2-2-2-2-2-2-2-2-2-2-2----------|
D|-0-0-0-0-0-0-0-4-5-0-0-0-0-0-0-0----------|
A|------------------------------------------|
E|------------------------------------------|#/22t2##/22t1#
   
#23t1#   A                    G
#23t2#E|------------------------------------------|
B|-5-5-5-5-5-5-5-5------3-3-3-3-3-3-3-3-----|
G|-6-6-6-6-6-6-6-6------4-4-4-4-4-4-4-4-----|
D|-7-7-7-7-7-7-7-7------5-5-5-5-5-5-5-5-----|
A|------------------------------------------|
E|------------------------------------------|#/23t2##/23t1#


#24t1#   D             ↓ (passagem)
#24t2#E|------------------------------------------|
B|-3-3-3-3-3-3-3-3-3-3-3-3-3-3-3-3----------|
G|-2-2-2-2-2-2-2-2-2-2-2-2-2-2-2-2----------|
D|-0-0-0-0-0-0-0-4-5-0-0-0-0-0-0-0----------|
A|------------------------------------------|
E|------------------------------------------|#/24t2##/24t1#

( A  G  D5 ) (8x)

Yeah!
Shoot you down, yeah
I’m gonna get you down on the bottom girl
Shoot you, I’m gonna shoot you
Oh yeah, yeah, yeah
I’m gonna shoot you down, yeah yeah
I’m gonna get you down, down down down down

[Solo 2]

#25t1##25t2#E|---------------------------------------------------|
B|-10---~\-10---~\-10---~\-10---~\-------------------|
G|-12b14~\-12b14~\-12b14~\-12b14~\-------------------|
D|---------------------------------------------------|
A|---------------------------------------------------|
E|---------------------------------------------------|#/25t2##/25t1#

#26t1##26t2#E|---------------------------------------------------|
B|-17b¼----------------17b¼--------------------------|
G|-17b18---------------17b18-------------------------|  (2x)
D|-------19p17-19~-----------19p17-19~---------------|
A|---------------------------------------------------|
E|---------------------------------------------------|#/26t2##/26t1#

#27t1##27t2#E|-----------17--------17-17-17----17----17----17----|
B|--------17-----------17-17-17----17----17----17----|
G|-16b18--------16b18-----------16-16b18-16b18-16b18-|
D|---------------------------------------------------|
A|---------------------------------------------------|
E|---------------------------------------------------|#/27t2##/27t1#

#28t1##28t2#E|-17-------17-----17-----17-----17-----17-----------|
B|-17-------17-----17-----17-----17-----17-----------|
G|----16b18----b18----b18----b18----b18----b18-------|
D|---------------------------------------------------|
A|---------------------------------------------------|
E|---------------------------------------------------|#/28t2##/28t1#

#29t1##29t2#E|-17-------17-----17-----17-----17-----17-----------|
B|-17-------17-----17-----17-----17-----17-----------|
G|----16b17----b17----b17----b17----b17--------------|
D|---------------------------------------------------|
A|---------------------------------------------------|
E|---------------------------------------------------|#/29t2##/29t1#

#30t1##30t2#E|---------------------------------------------------|
B|-17-----17--17-17-17-------------------------------|
G|-17r16--14--16----14-------------------------------|
D|---------------16----------------------------------|
A|---------------------------------------------------|
E|---------------------------------------------------|#/30t2##/30t1#

#31t1##31t2#E|-17------------------------------------------------|
B|----17-20b22-20b22-20b22-20b22~--------------------|
G|---------------------------------------------------|
D|---------------------------------------------------|
A|---------------------------------------------------|
E|---------------------------------------------------|#/31t2##/31t1#

#32t1##32t2#E|-17----------17------------------------------------|
B|----17-20b22----17-20b22r20p17---------------------|
G|---------------------------------------------------|
D|---------------------------------------------------|
A|---------------------------------------------------|
E|---------------------------------------------------|#/32t2##/32t1#

#33t1##33t2#E|---------------------------------------------------|
B|---------20---20---20---20-------------------------|
G|-19b21--b21--b21--b21--b21r19----------------------|
D|---------------------------------------------------|
A|---------------------------------------------------|
E|---------------------------------------------------|#/33t2##/33t1#

#34t1##34t2#E|----------17---------------------------------------|
B|----20b22----17----20b22-20b22-20b22-20b22~\-------|
G|-17------------------------------------------------|
D|---------------------------------------------------|
A|---------------------------------------------------|
E|---------------------------------------------------|#/34t2##/34t1#

#35t1##35t2#E|---------------------------------------------------|
B|----------5-7-5-8----------------------------------|
G|----------5-7-5-7b9--------------------------------|
D|-7~-7~-7~------------------------------------------|
A|---------------------------------------------------|
E|---------------------------------------------------|#/35t2##/35t1#

Final do Solo: Improvisação

Penta Blues: Am

#36t1##36t2#E|-------------------------5-------------------------|
B|---------------------5-8---8-5---------------------|
G|---------------5-7-8-----------8-7-5---------------|
D|-----------5-7-----------------------7-5-----------|
A|-----5-6-7-------------------------------7-6-5-----|
E|-5-8-------------------------------------------8-5-|#/36t2##/36t1#

#37t1##37t2#E|---------------------------------------------------|
B|---------------------------------------------------|
G|---------------------------------------------------|
D|---------------------------------------------------|
A|---------------------------------------------------|
E|-3b5~----------------------------------------------|#/37t2##/37t1#

Shoot you, shoot you, shoot you, shoot you down
Shoot you, shoot you, shoot you down

I’m gonna shoot to thrill
Play to kill, shoot to thrill
Composição: Angus Young / Brian Johnson / Malcolm YoungColaboração e revisão: Gustavo Cunhaivan
Videoaula Shoot to Thrill (aula de guitarra)