Thunderstruck

AC/DC

A5
12
X022XX
B
234
X24442
B5
134
X244XX
E5
12
022XXX
Tom: G
Intro:


(Guitarra Solo)

E|-------------------------------
B|-0-4p0-7p0-4p0-7p0-4p0-7p0-4p0-
G|-------------------------------
D|-------------------------------
A|-------------------------------
E|-------------------------------

E|-------------------- 
B|7p0----------------- 
G|-------------------- 
D|-------------------- 
A|-------------------- 
E|-------------------- 



E|-----------------------------
B|-4p0-7p0-4p0-7p0-4p0-7p0-4p0-
G|-----------------------------
D|-----------------------------
A|-----------------------------
E|-----------------------------

E|---------------------- 
B|7p0------------------- 
G|---------------------- 
D|---------------------- 
A|---------------------- 
E|---------------------- 



E|-----------------------------
B|-5p0-8p0-5p0-8p0-5p0-8p0-5p0-
G|-----------------------------
D|-----------------------------
A|-----------------------------
E|-----------------------------

E|----------------------        
B|8p0-------------------        
G|----------------------   (2x) 
D|----------------------        
A|----------------------        
E|----------------------        



E|-------------------------------
B|-0-4p0-7p0-4p0-7p0-4p0-7p0-4p0-
G|-------------------------------
D|-------------------------------
A|-------------------------------
E|-------------------------------

E|-------------------- 
B|7p0----------------- 
G|-------------------- 
D|-------------------- 
A|-------------------- 
E|-------------------- 



E|-----------------------------
B|-4p0-7p0-4p0-7p0-4p0-7p0-4p0-
G|-----------------------------
D|-----------------------------
A|-----------------------------
E|-----------------------------

E|---------------------- 
B|7p0------------------- 
G|---------------------- 
D|---------------------- 
A|---------------------- 
E|---------------------- 



Repete 12x:

E|--------------------------------
B|-12p0-10p0-9p0-10p0-9p0-7p0-9p0-
G|--------------------------------
D|--------------------------------
A|--------------------------------
E|--------------------------------

E|------------------- 
B|5p0-7p0-4p0-5p0---- 
G|------------------- 
D|------------------- 
A|------------------- 
E|------------------- 



E|--------------------------------
B|-4p0-5p0-4p0-5p0-4p0------------
G|--------------------------------
D|--------------------------------
A|--------------------------------
E|--------------------------------



(Guitarra Base)
   B5
E|-------------------------------
B|-------------------------------
G|---4---4---4--4---4------4---4-
D|---4---4---4--4---4------4---4-
A|-2---2---2------2---2--2---2---
E|-------------------------------

E|---------- 
B|---------- 
G|--4--4---- 
D|--4--4---- 
A|2--------- 
E|---------- 


E|--------------------------------
B|--------------------------------
G|---4----------------------------
D|---4----------------------------
A|-2---2--------------------------
E|--------------------------------

   ↓ ↑ ↓

Primeira Parte:
       B
I was caught in the middle of a 
railroad track (Thunder)
I looked round and I knew there was 
no turning back
My mind raced and I thought what 
could I do (Thunder)
And I knew there was no help, no 
help from you (Thunder)
               B5 A5 E5 A5
Sound of the drums
  E5            B5  A5  E5  A5
Beating in my heart
      E5        B5  A5  E5  A5
The thunder of guns
 E5       B5  A5  E5  A5
Tore me apart
You've been
          B5
Thunderstruck
               B5
Rode down the highway broke the 
limit, we hit the ton
Went through to the Texas, yeah 
Texas, and we had some fun
We met some girls, some dancers who 
gave a good time
Broke all the rules, played all the 
fools
Yeah yeah they, they, they blew our 
minds

E|--------------------------------
B|-12p0-10p0-9p0-10p0-9p0-7p0-9p0-
G|--------------------------------
D|--------------------------------
A|--------------------------------
E|--------------------------------

E|------------------- 
B|5p0-7p0-4p0-5p0---- 
G|------------------- 
D|------------------- 
A|------------------- 
E|------------------- 


E|-------------------------------- B|-4p0-5p0-4p0-5p0-4p0------------ G|-------------------------------- D|-------------------------------- A|-------------------------------- E|-------------------------------- E|-------------------------------- B|-12p0-10p0-9p0-10p0-9p0-7p0-9p0- G|-------------------------------- D|-------------------------------- A|-------------------------------- E|-------------------------------- E|------------------- B|5p0-7p0-4p0-5p0---- G|------------------- D|------------------- A|------------------- E|------------------- E|-------------------------------- B|-4p0-5p0-4p0-5p0-4p0------------ G|-------------------------------- D|-------------------------------- A|-------------------------------- E|-------------------------------- B5 A5 E5 A5 E5 E|-------------------------------- B|-------------------------------- G|-4--------2---------2----2------ D|-4--------2--2------2----2--2--- A|-2--------0--2------0----0--2--- E|-------------0--------------0--- E|-------- B|-------- G|-------- (4x) D|-------- A|-------- E|-------- ↓ ↓ ↑ ↑ ↑ ↓ B5 T E|-------------------------------- B|-------------------------------- G|-4------------16---------------- D|-4~-----------16---------------- A|-2~----------------------------- E|-------------------------------- B5 E|-------------------------------- B|-------------------------------- G|-4----4----4---4----4---4---4--- D|-4~---4----4---4----4---4---4--- A|-2~---2----2---2----2---2---2--- E|-------------------------------- (Guitarra Base) B5 E|------------------------------- B|------------------------------- G|---4---4---4--4---4------4---4- D|---4---4---4--4---4------4---4- A|-2---2---2------2---2--2---2--- E|------------------------------- E|---------- B|---------- G|--4--4---- D|--4--4---- A|2--------- E|---------- E|-------------------------------- B|-------------------------------- G|---4---------------------------- D|---4---------------------------- A|-2---2-------------------------- E|-------------------------------- ↓ ↑ ↓ Segunda Parte: B5 A5 E5 And I was shaking at the knees A5 B5 A5 E5 Could I come again please A5 B5 A5 E5 Yeah them ladies were too kind A5 B5 A5 E5 You've been B5 A5 E5 A5 B5 A5 E|-------------------------------- B|-------------------------------- G|-4-----2-----------2--4---2----- D|-4-----2------2----2--4---2---2- A|-2-----0------2----0--2---0---2- E|--------------0---------------0- ↓ ↓ ↓ ↓ ↓ ↓ ↓ A5 B5 A5 E5 A5 B5 E|-------------------------------- B|-------------------------------- G|-2--4---2-------------2--4---2-- D|-2--4---2---2---------2--4---2-- A|-0--2---0---2---------0--2---0-- E------------0-------------------- A5 E5 E|-------- B|-------- G|-------- D|-2------ A|-2------ E|0------ ↓ ↓ ↓ ↓ ↓ ↓ ↓ ↓ Refrão: B5 A5 E5 A5 E5 Thunderstruck B5 A5 A5 E5 Thunderstruck Refrão: B5 A5 A5 E5 E|-------------------------------- B|-------------------------------- G|-4-x--2--x--------2------------- D|-4-x--2--x--------2---x---2----- A|-2-x--0--x--2-----0---x---2----- E|------------0---------x---0----- ↓ ↓ ↑ ↓ ↑ ↓ ↓ ↑ ( B5 ) (2x) B5 A5 B5 I was shaking at the knees B5 A5 B5 Could I come again please Solo: E|----------------------------- B|------9b-r9----------------x- G|------9b-r9p7--------------x- D|-x\-----------9~------7-7~-x- A|-x\--------------7-9-------x- E|----------------------------- E|--------------------- B|--------------------- G|--------------------- D|7h9------------------ A|--------------------- E|--------------------- E|-------7-7---------------------- B|-----------10p7----------------- G|-9b11-----------9b11r9p7-------- D|-------------------------9~----- A|---------------------------7-9-- E|-------------------------------- E|------------------ B|----x------------- G|----x------------- D|7-7-x-7h9~-------- A|----x------------- E|------------------ E|---------------------------- B|----------7h10p7---7h10p7--- G|--9b11-11--------9--------9- D|---------------------------- A|---------------------------- E|---------------------------- E|---------------------- B|7h10p7---7h10p7------- G|-------8--------9----- D|---------------------- A|---------------------- E|---------------------- E|-------------------------------- B|-7h10p7---7h10p7---------------- G|--------9--------9-9-7b--------- D|-------------------------------- A|-------------------------------- E|-------------------------------- E|-17b19-17-14------------------- B|-------------17h18p17p15-17b19- G|------------------------------- D|------------------------------- A|------------------------------- E|------------------------------- E|17----------------- B|---17b19-19r17h15-- G|------------------- D|------------------- A|------------------- E|------------------- E|-------------------------------- B|----15b17-17-17r---------------- G|-16----------------------------- D|-------------------------------- A|-------------------------------- E|-------------------------------- E|----------------------------- B|----------------------------- G|---------7----7--9-7-9b11---- D|-------9---9----------------- A|-9--7------------------------ E|-7--5------------------------ E|--------------------- B|--------------------- G|9p7------------------ (4x) D|----9---------------- A|--------------------- E|--------------------- E|-------------------------------- B|-12p0-10p0-9p0-10p0-9p0-7p0-9p0- G|-------------------------------- D|-------------------------------- A|-------------------------------- E|-------------------------------- E|------------------- B|5p0-7p0-4p0-5p0---- G|------------------- D|------------------- A|------------------- E|------------------- E|-------------------------------- B|-4p0-5p0-4p0-5p0-4p0------------ G|-------------------------------- D|-------------------------------- A|-------------------------------- E|-------------------------------- Refrão: B5 A5 E5 A5 E5 Thunderstruck B5 A5 A5 E5 Thunderstruck B5 E5 B5 E5 It's alright, we're doin' fine B5 E5 B5 E5 It's alright, we're doin' fine, fine, fine Riff: B5 E5 E|-------------------------------- B|-------------------------------- G|-------------------------------- D|-4------------------------------ A|-2--------------2--------------- E|----------2-4---0--------------- Refrão: Thunderstruck B5 A5 E5 A5 E5 Thunderstruck, yeah, yeah, yeah B5 A5 E5 A5 E5 Thunderstruck, Thunderstruck B5 A5 E5 A5 E5 Thunderstruck, baby, baby B5 A5 E5 A5 E5 Thunderstruck, you've been Thunderstruck B5 A5 E5 A5 E5 Thunderstruck, Thunderstruck B5 You've been Thunderstruck
Composição: Angus Young / Malcolm YoungColaboração e revisão: Tarsius Lima
Videoaula Thunderstruck (aula de guitarra)