You Shook Me All Night Long

AC/DC

C
123
X32010
C9
34
X35533
D
123
XX0232
D4
123
XX0233
G
123
320003
G/B
123
X20033
G4
234
355533
Tom: G
Intro:  D4  D D4 D

#1t1#Parte 1:
   D4 D  D4     D
#1t2#E|------------------------------------------
B|-8-10-8-8---8-7---------------------------
G|-7-7------7-----7-------------------------
D|-0----------------0-----------------------
A|------------------------------------------
E|------------------------------------------#/1t2##/1t1#

#2t1#Parte 2:
  D
#2t2#E|------------------------------------------
B|-3----------------------------------------
G|-2---2---------2--------------------------
D|-0-3-0-3h4-0-3-0--------------------------
A|------------------------------------------
E|------------------------------------------#/2t2##/2t1#

Primeira parte 2x:
G C G4 C G D
G D (2x)
G C G4 C G D

Refrão 2x:  G C9 G/B
            D C9 G/B G C9 G/B
            D C9 G/B G

#3t1#  G      C9    G/B
#3t2#E|---3-------3-----3------------------------
B|---3---------3-----3----------------------
G|---0--------------------------------------
D|-0-0--------------------------------------
A|-2-2-0-2-3-----2--------------------------
E|-3-3--------------------------------------#/3t2##/3t1#

#4t1#  D      C9    G/B
#4t2#E|---2-------3-----3------------------------
B|---3---------3-----3----------------------
G|-2-2--------------------------------------
D|-0-0--------------------------------------
A|-----0-2-3-----2--------------------------
E|------------------------------------------#/4t2##/4t1#

Solo:
Parte 1:                           h.a     h.a
#5t1##5t2#E|------3--------------------------------------------
B|--------3-6----------------------------------------
G|-5b7~-------6r5-3-------------------3-------3------
D|------------------5---5-5-3-----------5---5--------
A|--------------------5-------5-3-1-------5----------
E|----------------------------------3----------------#/5t2##/5t1#

#6t1#Parte 2:
#6t2#E|----------------------------10---------------------
B|-----6-6------8-8---8-10b12----12r10-8-11b13-11-8-8
G|-5/7-----8/10-----9------------------------------9-
D|---------------------------------------------------
A|---------------------------------------------------
E|---------------------------------------------------#/6t2##/6t1#

#7t1#Parte 3:
#7t2#E|--------15-----------------------------------------
B|-18b20~----15-18-------------17-15-------18------18
G|-----------------18r17-15----17-15-17b19----17b19--
D|--------------------------17-----------------------
A|---------------------------------------------------
E|---------------------------------------------------#/7t2##/7t1#

#8t1##8t2#E|---------------------------------------------------
B|-------------17-15----15---------------------------
G|-19r17-15----17-15----15---------------------------
D|----------17-------17------------------------------
A|---------------------------------------------------
E|---------------------------------------------------#/8t2##/8t1#

#9t1#Parte 4:
#9t2#E|----18b20r19-18r17-15-17----15-------15------------
B|-15----------------------17----18b20~--17----------
G|-----------------------------------------19r17-15--
D|---------------------------------------------------
A|---------------------------------------------------
E|---------------------------------------------------#/9t2##/9t1#

#10t1##10t2#E|-------------15----15-15-18r17-15~-----------------
B|-------15h17----17---------------------------------
G|-17b19---------------------------------------------
D|---------------------------------------------------
A|---------------------------------------------------
E|---------------------------------------------------#/10t2##/10t1#

Base do solo/final:
(1ª vez)  G  C9  G/B  D  C9  G/B  G

#11t1#(2ª vez)
        C9    G/B    D             C9    G/B      G
#11t2#E|--------3-----3-----2-2-2-2--------3-----3---|
B|----------3-----3---3-3-3-3----------3-----3-|
G|------------------2-2-2-2-2------------------|
D|------------------0-0-0-0-0------------------|
A|-0-2-3------2---------------0-2-3------2-----|
E|---------------------------------------------|#/11t2##/11t1#
Composição: Angus Young / Brian Johnson / Malcolm Young / Patty Griffin / Sergio George / Steve RotheryColaboração e revisão: Márcio (Susuno)Caroline LeroyPedro GuilhermeGabriel Alquezare mais 4
Videoaula You Shook Me All Night Long  (aula de guitarra completa)