Anunciação

Alceu Valença

Am
123
X02210
C
123
X32010
Em7
123
022030
F
234
133211
G
123
320003
G7
34
353433
Tom: Am
[Intro] G  Am  C  G
        G  Am  C  G

[Parte 1 De 4]


E|------7-8-7--------------------
B|-8-10-------12p8-10p8---8-10-8-
G|----------------------9--------
D|-------------------------------
A|-------------------------------
E|-------------------------------

E|---------------------| 
B|10-------------------| 
G|---------------------| 
D|---------------------| 
A|---------------------| 
E|---------------------| 


[Parte 2 De 4]


E|------7-8-7-------------------
B|-8-10-------12p8-10p8---10/12-
G|----------------------9-------
D|------------------------------
A|------------------------------
E|------------------------------

E|----------------------| 
B|10-8-8----------------| 
G|----------------------| 
D|----------------------| 
A|----------------------| 
E|----------------------| 


[Parte 3 De 4]


E|------7-8-7--------------------
B|-8-10-------12p8-10p8---8-10-8-
G|----------------------9--------
D|-------------------------------
A|-------------------------------
E|-------------------------------

E|---------------------| 
B|10b12----------------| 
G|---------------------| 
D|---------------------| 
A|---------------------| 
E|---------------------| 


[Parte 4 De 4]


E|------7-8-7-------------------
B|-8-10-------12p8-10p8---10/12-
G|----------------------9-------
D|------------------------------
A|------------------------------
E|------------------------------

E|----------------------| 
B|10-8-8----------------| 
G|----------------------| 
D|----------------------| 
A|----------------------| 
E|----------------------| 


[Primeira Parte]

G                                 
  Na bruma leve das paixões que 
      Am
vem de dentro
                          C        
Tu vens chegando prá brincar no meu
      G
 quintal
No teu cavalo peito nu cabelo ao 
 Am
vento
                         C       
E o sol quarando nossas roupas no 
    G
varal

Na bruma leve das paixões que vem de
  Am
 dentro
                          C        
Tu vens chegando prá brincar no meu
      G
 quintal
No teu cavalo peito nu cabelo ao 
 Am
vento
                         C       
E o sol quarando nossas roupas no 
    G
varal

[Refrão]

    G7      Em7
Tu vens tu vens
F          C              G
  Eu já escuto os teus sinais
    G7      Em7
Tu vens tu vens
F          C              G
  Eu já escuto os teus sinais

[Segunda Parte]

A voz do anjo sussurrou no meu Am ouvido C E eu não duvido já escuto os teus G sinais Am Que tu virias numa manhã de domingo C Eu te anuncio nos sinos das G catedrais [Refrão] G7 Em7 Tu vens tu vens F C G Eu já escuto os teus sinais G7 Em7 Tu vens tu vens F C G Eu já escuto os teus sinais [Solo] G Am C G G Am C G [Parte 1 De 4] E|------7-8-7-------------------- B|-8-10-------12p8-10p8---8-10-8- G|----------------------9-------- D|------------------------------- A|------------------------------- E|------------------------------- E|---------------------| B|10-------------------| G|---------------------| D|---------------------| A|---------------------| E|---------------------| [Parte 2 De 4] E|------7-8-7------------------- B|-8-10-------12p8-10p8---10/12- G|----------------------9------- D|------------------------------ A|------------------------------ E|------------------------------ E|----------------------| B|10-8-8----------------| G|----------------------| D|----------------------| A|----------------------| E|----------------------| [Parte 3 De 4] E|------7-8-7-------------------- B|-8-10-------12p8-10p8---8-10-8- G|----------------------9-------- D|------------------------------- A|------------------------------- E|------------------------------- E|---------------------| B|10b12----------------| G|---------------------| D|---------------------| A|---------------------| E|---------------------| [Parte 4 De 4] E|------7-8-7------------------- B|-8-10-------12p8-10p8---10/12- G|----------------------9------- D|------------------------------ A|------------------------------ E|------------------------------ E|----------------------| B|10-8-8----------------| G|----------------------| D|----------------------| A|----------------------| E|----------------------| [Primeira Parte] G Na bruma leve das paixões que Am vem de dentro C Tu vens chegando prá brincar no meu G quintal No teu cavalo peito nu cabelo ao Am vento C E o sol quarando nossas roupas no G varal [Refrão] G7 Em7 Tu vens tu vens F C G Eu já escuto os teus sinais G7 Em7 Tu vens tu vens F C G Eu já escuto os teus sinais [Segunda Parte] A voz do anjo sussurrou no meu Am ouvido C E eu não duvido já escuto os teus G sinais Am Que tu virias numa manhã de domingo C Eu te anuncio nos sinos das G catedrais [Refrão] G7 Em7 Tu vens tu vens F C G Eu já escuto os teus sinais G7 Em7 Tu vens tu vens F C G Eu já escuto os teus sinais [Final] G Am C G G Am C G [Parte 1 De 4] E|------7-8-7-------------------- B|-8-10-------12p8-10p8---8-10-8- G|----------------------9-------- D|------------------------------- A|------------------------------- E|------------------------------- E|---------------------| B|10-------------------| G|---------------------| D|---------------------| A|---------------------| E|---------------------| [Parte 2 De 4] E|------7-8-7------------------- B|-8-10-------12p8-10p8---10/12- G|----------------------9------- D|------------------------------ A|------------------------------ E|------------------------------ E|----------------------| B|10-8-8----------------| G|----------------------| D|----------------------| A|----------------------| E|----------------------| [Parte 3 De 4] E|------7-8-7-------------------- B|-8-10-------12p8-10p8---8-10-8- G|----------------------9-------- D|------------------------------- A|------------------------------- E|------------------------------- E|---------------------| B|10b12----------------| G|---------------------| D|---------------------| A|---------------------| E|---------------------| [Parte 4 De 4] E|------7-8-7------------------- B|-8-10-------12p8-10p8---10/12- G|----------------------9------- D|------------------------------ A|------------------------------ E|------------------------------ E|----------------------| B|10-8-8----------------| G|----------------------| D|----------------------| A|----------------------| E|----------------------|
Composição: Alceu ValençaColaboração e revisão: Gustavo VazMayume AlvesGetúlio VasconcelosThalisson Ramirese mais 8
Videoaula Anunciação (vídeo aula)

Utilizamos cookies para personalizar sua experiência. Ao acessar o site, você concorda com a nossa Política de Privacidade.