Anunciação

Alceu Valença

Am
123
X02210
C
123
X32010
Em7
123
022030
F
234
133211
G
123
320003
G7
34
353433
Tom: G
[Intro] G  Am  C  G 
        G  Am  C  G 

[Parte 1 de 4]

#1t1##1t2#E|------7-8-7-----------------------------------------|
B|-8-10-------12p8-10p8---8-10-8-10-------------------|
G|----------------------9-----------------------------|
D|----------------------------------------------------|
A|----------------------------------------------------|
E|----------------------------------------------------|#/1t2##/1t1#

[Parte 2 de 4]

#2t1##2t2#E|------7-8-7-----------------------------------------|
B|-8-10-------12p8-10p8---10/12-10-8-8----------------|
G|----------------------9-----------------------------|
D|----------------------------------------------------|
A|----------------------------------------------------|
E|----------------------------------------------------|#/2t2##/2t1#

[Parte 3 de 4]

#3t1##3t2#E|------7-8-7-----------------------------------------|
B|-8-10-------12p8-10p8---8-10-8-10b12----------------|
G|----------------------9-----------------------------|
D|----------------------------------------------------|
A|----------------------------------------------------|
E|----------------------------------------------------|#/3t2##/3t1#

[Parte 4 de 4]

#4t1##4t2#E|------7-8-7-----------------------------------------|
B|-8-10-------12p8-10p8---10/12-10-8-8----------------|
G|----------------------9-----------------------------|
D|----------------------------------------------------|
A|----------------------------------------------------|
E|----------------------------------------------------|#/4t2##/4t1#

[Primeira Parte]

G                                       Am
  Na bruma leve das paixões que vem de dentro
                          C              G
Tu vens chegando prá brincar no meu quintal
                                  Am
No teu cavalo peito nu cabelo ao vento
                         C           G
E o sol quarando nossas roupas no varal     

                                      Am
Na bruma leve das paixões que vem de dentro
                          C              G
Tu vens chegando prá brincar no meu quintal
                                  Am
No teu cavalo peito nu cabelo ao vento
                         C           G
E o sol quarando nossas roupas no varal     

[Refrão]

    G7      Em7
Tu vens tu vens
F          C              G
  Eu já escuto os teus sinais
    G7      Em7
Tu vens tu vens
F          C              G
  Eu já escuto os teus sinais

[Segunda Parte]

                                  Am
A voz do anjo sussurrou no meu ouvido
                      C              G
E eu não duvido já escuto os teus sinais
                               Am
Que tu virias numa manhã de domingo
                   C              G
Eu te anuncio nos sinos das catedrais

[Refrão]

    G7      Em7
Tu vens tu vens
F          C              G
  Eu já escuto os teus sinais
    G7      Em7
Tu vens tu vens
F          C              G
  Eu já escuto os teus sinais

[Solo] G  Am  C  G 
       G  Am  C  G 

[Parte 1 de 4]

#5t1##5t2#E|------7-8-7-----------------------------------------|
B|-8-10-------12p8-10p8---8-10-8-10-------------------|
G|----------------------9-----------------------------|
D|----------------------------------------------------|
A|----------------------------------------------------|
E|----------------------------------------------------|#/5t2##/5t1#

[Parte 2 de 4]

#6t1##6t2#E|------7-8-7-----------------------------------------|
B|-8-10-------12p8-10p8---10/12-10-8-8----------------|
G|----------------------9-----------------------------|
D|----------------------------------------------------|
A|----------------------------------------------------|
E|----------------------------------------------------|#/6t2##/6t1#

[Parte 3 de 4]

#7t1##7t2#E|------7-8-7-----------------------------------------|
B|-8-10-------12p8-10p8---8-10-8-10b12----------------|
G|----------------------9-----------------------------|
D|----------------------------------------------------|
A|----------------------------------------------------|
E|----------------------------------------------------|#/7t2##/7t1#

[Parte 4 de 4]

#8t1##8t2#E|------7-8-7-----------------------------------------|
B|-8-10-------12p8-10p8---10/12-10-8-8----------------|
G|----------------------9-----------------------------|
D|----------------------------------------------------|
A|----------------------------------------------------|
E|----------------------------------------------------|#/8t2##/8t1#

[Primeira Parte]

G                                       Am
  Na bruma leve das paixões que vem de dentro
                          C              G
Tu vens chegando prá brincar no meu quintal
                                  Am
No teu cavalo peito nu cabelo ao vento
                         C           G
E o sol quarando nossas roupas no varal     
   
[Refrão]

    G7      Em7
Tu vens tu vens
F          C              G
  Eu já escuto os teus sinais
    G7      Em7
Tu vens tu vens
F          C              G
  Eu já escuto os teus sinais

[Segunda Parte]

                                  Am
A voz do anjo sussurrou no meu ouvido
                      C              G
E eu não duvido já escuto os teus sinais
                               Am
Que tu virias numa manhã de domingo
                   C              G
Eu te anuncio nos sinos das catedrais

[Refrão]

    G7      Em7
Tu vens tu vens
F          C              G
  Eu já escuto os teus sinais
    G7      Em7
Tu vens tu vens
F          C              G
  Eu já escuto os teus sinais

[Final] G  Am  C  G 
        G  Am  C  G 

[Parte 1 de 4]

#9t1##9t2#E|------7-8-7-----------------------------------------|
B|-8-10-------12p8-10p8---8-10-8-10-------------------|
G|----------------------9-----------------------------|
D|----------------------------------------------------|
A|----------------------------------------------------|
E|----------------------------------------------------|#/9t2##/9t1#

[Parte 2 de 4]

#10t1##10t2#E|------7-8-7-----------------------------------------|
B|-8-10-------12p8-10p8---10/12-10-8-8----------------|
G|----------------------9-----------------------------|
D|----------------------------------------------------|
A|----------------------------------------------------|
E|----------------------------------------------------|#/10t2##/10t1#

[Parte 3 de 4]

#11t1##11t2#E|------7-8-7-----------------------------------------|
B|-8-10-------12p8-10p8---8-10-8-10b12----------------|
G|----------------------9-----------------------------|
D|----------------------------------------------------|
A|----------------------------------------------------|
E|----------------------------------------------------|#/11t2##/11t1#

[Parte 4 de 4]

#12t1##12t2#E|------7-8-7-----------------------------------------|
B|-8-10-------12p8-10p8---10/12-10-8-8----------------|
G|----------------------9-----------------------------|
D|----------------------------------------------------|
A|----------------------------------------------------|
E|----------------------------------------------------|#/12t2##/12t1#
Composição: Alceu ValençaColaboração e revisão: Mayume AlvesGetúlio VasconcelosThalisson RamiresSelma Rodegueroe mais 7
Videoaula Anunciação (vídeo aula)