busca

Anunciação

Alceu Valença

Tom: Am
[Intro] G  Am  C  G 
        G  Am  C  G 

[Parte 1 de 4]

E|------7-8-7-----------------------------------------|
B|-8-10-------12p8-10p8---8-10-8-10-------------------|
G|----------------------9-----------------------------|
D|----------------------------------------------------|
A|----------------------------------------------------|
E|----------------------------------------------------|

[Parte 2 de 4]

E|------7-8-7-----------------------------------------|
B|-8-10-------12p8-10p8---10/12-10-8-8----------------|
G|----------------------9-----------------------------|
D|----------------------------------------------------|
A|----------------------------------------------------|
E|----------------------------------------------------|

[Parte 3 de 4]

E|------7-8-7-----------------------------------------|
B|-8-10-------12p8-10p8---8-10-8-10b12----------------|
G|----------------------9-----------------------------|
D|----------------------------------------------------|
A|----------------------------------------------------|
E|----------------------------------------------------|

[Parte 4 de 4]

E|------7-8-7-----------------------------------------|
B|-8-10-------12p8-10p8---10/12-10-8-8----------------|
G|----------------------9-----------------------------|
D|----------------------------------------------------|
A|----------------------------------------------------|
E|----------------------------------------------------|

[Primeira Parte]

G                                       Am
  Na bruma leve das paixões que vem de dentro
                          C              G
Tu vens chegando prá brincar no meu quintal
                                  Am
No teu cavalo peito nu cabelo ao vento
                         C           G
E o sol quarando nossas roupas no varal     

                                      Am
Na bruma leve das paixões que vem de dentro
                          C              G
Tu vens chegando prá brincar no meu quintal
                                  Am
No teu cavalo peito nu cabelo ao vento
                         C           G
E o sol quarando nossas roupas no varal     

[Refrão]

    G7      Em7
Tu vens tu vens
F          C              G
  Eu já escuto os teus sinais
    G7      Em7
Tu vens tu vens
F          C              G
  Eu já escuto os teus sinais

[Segunda Parte]

                                  Am
A voz do anjo sussurrou no meu ouvido
                      C              G
E eu não duvido já escuto os teus sinais
                               Am
Que tu virias numa manhã de domingo
                   C              G
Eu te anuncio nos sinos das catedrais

[Refrão]

    G7      Em7
Tu vens tu vens
F          C              G
  Eu já escuto os teus sinais
    G7      Em7
Tu vens tu vens
F          C              G
  Eu já escuto os teus sinais

[Solo] G  Am  C  G 
       G  Am  C  G 

[Parte 1 de 4]

E|------7-8-7-----------------------------------------|
B|-8-10-------12p8-10p8---8-10-8-10-------------------|
G|----------------------9-----------------------------|
D|----------------------------------------------------|
A|----------------------------------------------------|
E|----------------------------------------------------|

[Parte 2 de 4]

E|------7-8-7-----------------------------------------|
B|-8-10-------12p8-10p8---10/12-10-8-8----------------|
G|----------------------9-----------------------------|
D|----------------------------------------------------|
A|----------------------------------------------------|
E|----------------------------------------------------|

[Parte 3 de 4]

E|------7-8-7-----------------------------------------|
B|-8-10-------12p8-10p8---8-10-8-10b12----------------|
G|----------------------9-----------------------------|
D|----------------------------------------------------|
A|----------------------------------------------------|
E|----------------------------------------------------|

[Parte 4 de 4]

E|------7-8-7-----------------------------------------|
B|-8-10-------12p8-10p8---10/12-10-8-8----------------|
G|----------------------9-----------------------------|
D|----------------------------------------------------|
A|----------------------------------------------------|
E|----------------------------------------------------|

[Primeira Parte]

G                                       Am
  Na bruma leve das paixões que vem de dentro
                          C              G
Tu vens chegando prá brincar no meu quintal
                                  Am
No teu cavalo peito nu cabelo ao vento
                         C           G
E o sol quarando nossas roupas no varal     
   
[Refrão]

    G7      Em7
Tu vens tu vens
F          C              G
  Eu já escuto os teus sinais
    G7      Em7
Tu vens tu vens
F          C              G
  Eu já escuto os teus sinais

[Segunda Parte]

                                  Am
A voz do anjo sussurrou no meu ouvido
                      C              G
E eu não duvido já escuto os teus sinais
                               Am
Que tu virias numa manhã de domingo
                   C              G
Eu te anuncio nos sinos das catedrais

[Refrão]

    G7      Em7
Tu vens tu vens
F          C              G
  Eu já escuto os teus sinais
    G7      Em7
Tu vens tu vens
F          C              G
  Eu já escuto os teus sinais

[Final] G  Am  C  G 
        G  Am  C  G 

[Parte 1 de 4]

E|------7-8-7-----------------------------------------|
B|-8-10-------12p8-10p8---8-10-8-10-------------------|
G|----------------------9-----------------------------|
D|----------------------------------------------------|
A|----------------------------------------------------|
E|----------------------------------------------------|

[Parte 2 de 4]

E|------7-8-7-----------------------------------------|
B|-8-10-------12p8-10p8---10/12-10-8-8----------------|
G|----------------------9-----------------------------|
D|----------------------------------------------------|
A|----------------------------------------------------|
E|----------------------------------------------------|

[Parte 3 de 4]

E|------7-8-7-----------------------------------------|
B|-8-10-------12p8-10p8---8-10-8-10b12----------------|
G|----------------------9-----------------------------|
D|----------------------------------------------------|
A|----------------------------------------------------|
E|----------------------------------------------------|

[Parte 4 de 4]

E|------7-8-7-----------------------------------------|
B|-8-10-------12p8-10p8---10/12-10-8-8----------------|
G|----------------------9-----------------------------|
D|----------------------------------------------------|
A|----------------------------------------------------|
E|----------------------------------------------------|

Clipes