La Belle De Jour

Alceu Valença

Am
123
X02210
C
123
X32010
Em
12
022000
F
234
133211
G
123
320003
Tom: G
[Intro] C  Em  C  Em

C    Em   C    Em
Ah, hei.. Ah, hei

( Am  Em  Am  Em )

F   G              C   Em  C  Em
Ah,   La Belle de Jour

C    Em   C    Em
Ah, hei.. Ah, hei

(Dedilhado Intro e Primeira Parte)

Parte 1

#1t1#   C
#1t2#E|-------0----------------0-----------------|
B|---1-1-----1---1----1-1-----1---0---------|
G|-----0----------------0-------------------|
D|-------------2----------------0-----------|
A|-3-------3--------3-------3---------------|
E|------------------------------------------|#/1t2##/1t1#

#2t1#   Em
#2t2#E|-------3----------------3-----------------|
B|---0-0-----0---0----0-0-----0---0---------|
G|-----0----------------0-------------------|
D|-2-------2---0----2-------2---0-----------|
A|------------------------------------------|
E|------------------------------------------|#/2t2##/2t1#

Parte 2

#3t1#   Am
#3t2#E|-------0----------------0-----------------|
B|---1-1-----1---1----1-1-----1---0---------|
G|-----2----------------2-------------------|
D|-------------2----2-------2---0-----------|
A|-0-------3--------------------------------|
E|------------------------------------------|#/3t2##/3t1#

#4t1#   Em
#4t2#E|-------0----------------0-----------------|
B|---0-0-----0---0----0-0-----0---0---------|
G|-----0----------------0-------------------|
D|-------------2----2-------2---0-----------|
A|------------------------------------------|
E|-0-------3--------------------------------|#/4t2##/4t1#

Parte 3

#5t1#   F
#5t2#E|-------1----------------1-----------------|
B|---1-1-----1---1----1-1-----1---1---------|
G|-----2----------------2-------------------|
D|---------3---3------------3---3-----------|
A|------------------------------------------|
E|-1----------------1-----------------------|#/5t2##/5t1#

#6t1#   G
#6t2#E|-------3-----------3----------------------|
B|---3-3-----3---3---3----------------------|
G|-----4-------------4----------------------|
D|---------5---5-----5----------------------|
A|-------------------5----------------------|
E|-3-----------------3----------------------|#/6t2##/6t1#

[Primeira Parte]

    C
Eu lembro da moça bonita
             Em
Da praia de Boa Viagem
     C
E a moça no meio da tarde
                Em
De um domingo azul
  Am
Azul era Belle de Jour
               Em
Era a bela da tarde
     F
Seus olhos azuis como a tarde
    G
Na tarde de um domingo azul
             C   Em  C  Em
La Belle de Jour

    C
Eu lembro da moça bonita
             Em
Da praia de Boa Viagem
     C
E a moça no meio da tarde
                Em
De um domingo azul
  Am
Azul era Belle de Jour
               Em
Era a bela da tarde
     F
Seus olhos azuis como a tarde
    G
Na tarde de um domingo azul
             C
La Belle de Jour

[Segunda Parte]

Parte 1

#7t1#   Am
#7t2#E|-------0----------------0-----------------|
B|---1-1-----1---1----1-1-----1---1---------|
G|-----2----------------2-------------------|
D|-------------2----------------2-----------|
A|-0-------3--------0-------3---------------|
E|------------------------------------------|#/7t2##/7t1#

#8t1#   Em
#8t2#E|-------0----------------0-----------------|
B|---0-0-----0---0----0-0-----0---0---------|
G|-----0----------------0-------------------|
D|------------------------------------------|
A|-------------2----------------2-----------|
E|-0-------3--------0-------3---------------|#/8t2##/8t1#

Parte 2

#9t1#   F
#9t2#E|-------1----------------1-----------------|
B|---1-1-----1---1----1-1-----1---1---------|
G|-----2----------------2-------------------|
D|---------3---3------------3---3-----------|
A|------------------------------------------|
E|-1----------------1-----------------------|#/9t2##/9t1#

#10t1#   Em
#10t2#E|-------0----------------0-----------------|
B|---0-0-----0---0----0-0-----0---0---------|
G|-----0----------------0-------------------|
D|---------2---2------------2---2-----------|
A|------------------------------------------|
E|-0----------------0-----------------------|#/10t2##/10t1#

#11t1#   F
#11t2#E|-------1----------------1-----------------|
B|---1-1-----1---1----1-1-----1---1---------|
G|-----2----------------2-------------------|
D|---------3---3------------3---3-----------|
A|------------------------------------------|
E|-1----------------1-----------------------|#/11t2##/11t1#

#12t1#   G
#12t2#E|-------3-----------3----------------------|
B|---3-3-----3---3---3----------------------|
G|-----4-------------4----------------------|
D|---------5---5-----5----------------------|
A|-------------------5----------------------|
E|-3-----------------3----------------------|#/12t2##/12t1#

          Am
Belle de Jour
          Em
Belle de Jour

    Am
La Belle de Jour

Era a moça mais linda
    Em
De toda a cidade
   Am
E foi justamente pra ela
                                Em
Que eu escrevi o meu primeiro blues
     F
Mas Belle de Jour
            Em
No azul viajava
     F
Seus olhos azuis como a tarde
    G
Na tarde de um domingo azul
             C   Em  C  Em
La Belle de Jour

[Base Solo] C  Em  C  Em
            Am  Em  Am  Em  F  G

[Solo]

Parte 1

#13t1##13t2#E|-----5-8-10-7-8-7h8p7-------------------------------|
B|---5------------------8---8-------------------------|
G|------------------------9---9-----------------------|
D|-7--------------------------------------------------|
A|----------------------------------------------------|
E|----------------------------------------------------|#/13t2##/13t1#

Parte 2

#14t1##14t2#E|-12-------------------------5-----------------------|
B|----10--------------------6-------------------------|
G|-------9-7-------7-5/7--5---------------------------|
D|-----------7-5-7------------------------------------|
A|----------------------------------------------------|
E|----------------------------------------------------|#/14t2##/14t1#

Parte 3

#15t1##15t2#E|-5---------5-7-8-7-8-10/12--------------------------|
B|---5-----5-----------------8------------------------|
G|-----5----------------------------------------------|
D|-------7--------------------------------------------|
A|----------------------------------------------------|
E|----------------------------------------------------|#/15t2##/15t1#

Parte 4

#16t1##16t2#E|---8---8---7---7---5---5----------------------------|
B|---------------------------8---8-6-5h6-5------------|
G|-5---5---5---5---5---5---5---5-----------4h5-4------|
D|----------------------------------------------------|
A|----------------------------------------------------|
E|----------------------------------------------------|#/16t2##/16t1#

Parte 5

#17t1##17t2#E|----------------------------------------------------|
B|-1-1-0-0--------------------------------------------|
G|---------2-2-2-0-0-0--------------------------------|
D|---------------------3-3-3-2-2-0-0------------------|
A|-----------------------------------2h3p2------------|
E|----------------------------------------------------|#/17t2##/17t1#

             C  Em  C  Em
La Belle de Jour

[Primeira Parte]

    C
Eu lembro da moça bonita
             Em
Da praia de Boa Viagem
     C
E a moça no meio da tarde
                Em
De um domingo azul
  Am
Azul era Belle de Jour
               Em
Era a bela da tarde
     F
Seus olhos azuis como a tarde
    G
Na tarde de um domingo azul
             C   Em  C  Em
La Belle de Jour

    C
Eu lembro da moça bonita
             Em
Da praia de Boa Viagem
     C
E a moça no meio da tarde
                Em
De um domingo azul
  Am
Azul era Belle de Jour
               Em
Era a bela da tarde
     F
Seus olhos azuis como a tarde
    G
Na tarde de um domingo azul
             C
La Belle de Jour

[Segunda Parte]

          Am
Belle de Jour
          Em
Belle de Jour

    Am
La Belle de Jour

Era a moça mais linda
    Em
De toda a cidade
   Am
E foi justamente pra ela
                                Em
Que eu escrevi o meu primeiro blues
     F
Mas Belle de Jour
            Em
No azul viajava
     F
Seus olhos azuis como a tarde
    G
Na tarde de um domingo azul
             C   Em  C  Em
La Belle de Jour

C    Em   C    Em
Ah, hei.. Ah, hei
C    Em   C    Em
Ah, hei.. Ah, hei
Composição: Alçeu ValençaColaboração e revisão: Leandro SandimWagner SilvaDiego NascimentoPaulo Paivae mais 1
Videoaula La Belle De Jour (violão completa)