Tocando Em Frente

Almir Sater

C
123
X32010
Dm
123
XX0231
F9
234
135211
G
123
320003
Tom: G
[Intro]

#1t1##1t2#E|------------------|
B|------------------|
G|---0---0---0------|
D|-----0---2--------|
A|-3----------------|
E|------------------|#/1t2##/1t1#

[Primeira Parte]

(Parte 1 de 3)

#2t1##2t2#E|-0-1-3-7--7---------7---------------------|
B|-1-3-5-8----8-----8---8-------------------|
G|--------------7-7-------7-----------------|
D|------------------------------------------|
A|------------------------------------------|
E|------------------------------------------|#/2t2##/2t1#

#3t1##3t2#E|-----5----------5-------------------------|
B|---6---6------6---6-----------------------|
G|-5-------5--5-------5---------------------|
D|------------------------------------------|
A|------------------------------------------|
E|------------------------------------------|#/3t2##/3t1#

(Parte 2 de 3)

#4t1##4t2#E|-----0-0-0--------------------------------|
B|---1---1-1--------------------------------|
G|-0----------------------------------------|
D|------------------------------------------|
A|------------------------------------------|
E|------------------------------------------|#/4t2##/4t1#

(Repete Parte 1 de 3)

#5t1##5t2#E|-0-1-3-7--7---------7---------------------|
B|-1-3-5-8----8-----8---8-------------------|
G|--------------7-7-------7-----------------|
D|------------------------------------------|
A|------------------------------------------|
E|------------------------------------------|#/5t2##/5t1#

#6t1##6t2#E|-----5----------5-------------------------|
B|---6---6------6---6-----------------------|
G|-5-------5--5-------5---------------------|
D|------------------------------------------|
A|------------------------------------------|
E|------------------------------------------|#/6t2##/6t1#

(Parte 3 de 3)

#7t1##7t2#E|-----0-0--1-1/3-3-3-3-----3---------3-----|
B|---1---1--3-3/5-5-5-5---3---3-----3---3---|
G|-0--------------------4-------5-5-------5-|
D|------------------------------------------|
A|------------------------------------------|
E|------------------------------------------|#/7t2##/7t1#

G                              F9
 Ando devagar porque já tive pressa
                                   C
E levo esse sorriso, porque já chorei demais
 G                                         F9
Hoje me sinto mais forte, mais feliz quem sabe
                                C                G
Só levo a certeza de que muito pouco eu sei, ou nada sei

[Refrão]

(Parte 1 de 3)

#8t1##8t2#E|-----1---------1---------1---------1------|
B|---1---1-----3---3-----1---1-----3---3----|
G|-2-------2-2-------2-2-------2-2-------2--|
D|------------------------------------------|
A|------------------------------------------|
E|------------------------------------------|#/8t2##/8t1#

(Parte 2 de 3)

#9t1##9t2#E|-----0-0--0-0-1-1-1/3-3-0-----------------|
B|---1---1--1-1-3-3-3/5-5-------------------|
G|-0----------------------------------------|
D|------------------------------------------|
A|------------------------------------------|
E|------------------------------------------|#/9t2##/9t1#

(Repete Parte 1 de 3)

#10t1##10t2#E|-----1---------1---------1---------1------|
B|---1---1-----3---3-----1---1-----3---3----|
G|-2-------2-2-------2-2-------2-2-------2--|
D|------------------------------------------|
A|------------------------------------------|
E|------------------------------------------|#/10t2##/10t1#

(Parte 3 de 3)

#11t1##11t2#E|-----0----------0-------------------------|
B|---1---1------1---1-----------------------|
G|-0-------0--0-------0---------------------|
D|------------------------------------------|
A|------------------------------------------|
E|------------------------------------------|#/11t2##/11t1#

F9            Dm             F9
 Conhecer as manhas e as manhãs
             Dm             C
O sabor das massas e das maçãs
F9             Dm               F9
 É preciso o amor pra poder pulsar
           Dm               F9
É preciso paz pra poder sorrir
              C
É preciso a chuva para florir

[Segunda Parte]

(Parte 1 de 3)

#12t1##12t2#E|-0-1-3-7--7---------7---------------------|
B|-1-3-5-8----8-----8---8-------------------|
G|--------------7-7-------7-----------------|
D|------------------------------------------|
A|------------------------------------------|
E|------------------------------------------|#/12t2##/12t1#

#13t1##13t2#E|-----5----------5-------------------------|
B|---6---6------6---6-----------------------|
G|-5-------5--5-------5---------------------|
D|------------------------------------------|
A|------------------------------------------|
E|------------------------------------------|#/13t2##/13t1#

(Parte 2 de 3)

#14t1##14t2#E|-----0-0-0--------------------------------|
B|---1---1-1--------------------------------|
G|-0----------------------------------------|
D|------------------------------------------|
A|------------------------------------------|
E|------------------------------------------|#/14t2##/14t1#

(Repete Parte 1 de 3)

#15t1##15t2#E|-0-1-3-7--7---------7---------------------|
B|-1-3-5-8----8-----8---8-------------------|
G|--------------7-7-------7-----------------|
D|------------------------------------------|
A|------------------------------------------|
E|------------------------------------------|#/15t2##/15t1#

#16t1##16t2#E|-----5----------5-------------------------|
B|---6---6------6---6-----------------------|
G|-5-------5--5-------5---------------------|
D|------------------------------------------|
A|------------------------------------------|
E|------------------------------------------|#/16t2##/16t1#

(Parte 3 de 3)

#17t1##17t2#E|-----0-0--1-1/3-3-3-3-----3---------3-----|
B|---1---1--3-3/5-5-5-5---3---3-----3---3---|
G|-0--------------------4-------5-5-------5-|
D|------------------------------------------|
A|------------------------------------------|
E|------------------------------------------|#/17t2##/17t1#

 G                                    F9
Penso que cumprir a vida seja simplesmente
                                        C
Compreender a marcha, e ir tocando em frente
 G                                   F9
Como um velho boiadeiro levando a boiada
                                      C
Eu vou tocando os dias pela longa estrada eu vou
    G
Estrada eu sou

[Refrão]

(Parte 1 de 3)

#18t1##18t2#E|-----1---------1---------1---------1------|
B|---1---1-----3---3-----1---1-----3---3----|
G|-2-------2-2-------2-2-------2-2-------2--|
D|------------------------------------------|
A|------------------------------------------|
E|------------------------------------------|#/18t2##/18t1#

(Parte 2 de 3)

#19t1##19t2#E|-----0-0--0-0-1-1-1/3-3-0-----------------|
B|---1---1--1-1-3-3-3/5-5-------------------|
G|-0----------------------------------------|
D|------------------------------------------|
A|------------------------------------------|
E|------------------------------------------|#/19t2##/19t1#

(Repete Parte 1 de 3)

#20t1##20t2#E|-----1---------1---------1---------1------|
B|---1---1-----3---3-----1---1-----3---3----|
G|-2-------2-2-------2-2-------2-2-------2--|
D|------------------------------------------|
A|------------------------------------------|
E|------------------------------------------|#/20t2##/20t1#

(Parte 3 de 3)

#21t1##21t2#E|-----0----------0-------------------------|
B|---1---1------1---1-----------------------|
G|-0-------0--0-------0---------------------|
D|------------------------------------------|
A|------------------------------------------|
E|------------------------------------------|#/21t2##/21t1#

F9            Dm             F9
 Conhecer as manhas e as manhãs
             Dm             C
O sabor das massas e das maçãs
F9             Dm               F9
 É preciso o amor pra poder pulsar
           Dm               F9
É preciso paz pra poder sorrir
              C
É preciso a chuva para florir

[Terceira Parte]

(Parte 1 de 3)

#22t1##22t2#E|-0-1-3-7--7---------7---------------------|
B|-1-3-5-8----8-----8---8-------------------|
G|--------------7-7-------7-----------------|
D|------------------------------------------|
A|------------------------------------------|
E|------------------------------------------|#/22t2##/22t1#

#23t1##23t2#E|-----5----------5-------------------------|
B|---6---6------6---6-----------------------|
G|-5-------5--5-------5---------------------|
D|------------------------------------------|
A|------------------------------------------|
E|------------------------------------------|#/23t2##/23t1#

(Parte 2 de 3)

#24t1##24t2#E|-----0-0-0--------------------------------|
B|---1---1-1--------------------------------|
G|-0----------------------------------------|
D|------------------------------------------|
A|------------------------------------------|
E|------------------------------------------|#/24t2##/24t1#

(Repete Parte 1 de 3)

#25t1##25t2#E|-0-1-3-7--7---------7---------------------|
B|-1-3-5-8----8-----8---8-------------------|
G|--------------7-7-------7-----------------|
D|------------------------------------------|
A|------------------------------------------|
E|------------------------------------------|#/25t2##/25t1#

#26t1##26t2#E|-----5----------5-------------------------|
B|---6---6------6---6-----------------------|
G|-5-------5--5-------5---------------------|
D|------------------------------------------|
A|------------------------------------------|
E|------------------------------------------|#/26t2##/26t1#

(Parte 3 de 3)

#27t1##27t2#E|-----0-0--1-1/3-3-3-3-----3---------3-----|
B|---1---1--3-3/5-5-5-5---3---3-----3---3---|
G|-0--------------------4-------5-5-------5-|
D|------------------------------------------|
A|------------------------------------------|
E|------------------------------------------|#/27t2##/27t1#

 G                                 F9
Todo mundo ama um dia todo mundo chora
                                      C
Um dia a gente chega, no outro vai embora
G                                F9
 Cada um de nós compõe a sua história
                                    C
E cada ser em si, carrega o dom de ser capaz
    G
De ser feliz

[Refrão]

(Parte 1 de 3)

#28t1##28t2#E|-----1---------1---------1---------1------|
B|---1---1-----3---3-----1---1-----3---3----|
G|-2-------2-2-------2-2-------2-2-------2--|
D|------------------------------------------|
A|------------------------------------------|
E|------------------------------------------|#/28t2##/28t1#

(Parte 2 de 3)

#29t1##29t2#E|-----0-0--0-0-1-1-1/3-3-0-----------------|
B|---1---1--1-1-3-3-3/5-5-------------------|
G|-0----------------------------------------|
D|------------------------------------------|
A|------------------------------------------|
E|------------------------------------------|#/29t2##/29t1#

(Repete Parte 1 de 3)

#30t1##30t2#E|-----1---------1---------1---------1------|
B|---1---1-----3---3-----1---1-----3---3----|
G|-2-------2-2-------2-2-------2-2-------2--|
D|------------------------------------------|
A|------------------------------------------|
E|------------------------------------------|#/30t2##/30t1#

(Parte 3 de 3)

#31t1##31t2#E|-----0----------0-------------------------|
B|---1---1------1---1-----------------------|
G|-0-------0--0-------0---------------------|
D|------------------------------------------|
A|------------------------------------------|
E|------------------------------------------|#/31t2##/31t1#

F9            Dm             F9
 Conhecer as manhas e as manhãs
             Dm             C
O sabor das massas e das maçãs
F9             Dm               F9
 É preciso o amor pra poder pulsar
           Dm               F9
É preciso paz pra poder sorrir
              C
É preciso a chuva para florir

(Parte 1 de 3)

#32t1##32t2#E|-0-1-3-7--7---------7---------------------|
B|-1-3-5-8----8-----8---8-------------------|
G|--------------7-7-------7-----------------|
D|------------------------------------------|
A|------------------------------------------|
E|------------------------------------------|#/32t2##/32t1#

#33t1##33t2#E|-----5----------5-------------------------|
B|---6---6------6---6-----------------------|
G|-5-------5--5-------5---------------------|
D|------------------------------------------|
A|------------------------------------------|
E|------------------------------------------|#/33t2##/33t1#

(Parte 2 de 3)

#34t1##34t2#E|-----0-0-0--------------------------------|
B|---1---1-1--------------------------------|
G|-0----------------------------------------|
D|------------------------------------------|
A|------------------------------------------|
E|------------------------------------------|#/34t2##/34t1#

(Repete Parte 1 de 3)

#35t1##35t2#E|-0-1-3-7--7---------7---------------------|
B|-1-3-5-8----8-----8---8-------------------|
G|--------------7-7-------7-----------------|
D|------------------------------------------|
A|------------------------------------------|
E|------------------------------------------|#/35t2##/35t1#

#36t1##36t2#E|-----5----------5-------------------------|
B|---6---6------6---6-----------------------|
G|-5-------5--5-------5---------------------|
D|------------------------------------------|
A|------------------------------------------|
E|------------------------------------------|#/36t2##/36t1#

(Parte 3 de 3)

#37t1##37t2#E|-----0-0--1-1/3-3-3-3-----3---------3-----|
B|---1---1--3-3/5-5-5-5---3---3-----3---3---|
G|-0--------------------4-------5-5-------5-|
D|------------------------------------------|
A|------------------------------------------|
E|------------------------------------------|#/37t2##/37t1#

G                              F9
 Ando devagar porque já tive pressa
                                   C
E levo esse sorriso, porque já chorei demais
G                                F9
 Cada um de nós compõe a sua história
                                    C
E cada ser em si, carrega o dom de ser capaz
    G
De ser feliz

[Passagem Final]

#38t1#                  G
#38t2#E|--------------3-----|
B|--------------3-----|
G|---0---0---0--0-----|
D|--------------0-----|
A|-3---2---0----2-----|
E|--------------3-----|#/38t2##/38t1#
Composição: Almir Sater / Renato TeixeiraColaboração e revisão: Leandro SandimLucas KappaunMAGNOWeverton Oliverae mais 3
Videoaula Tocando em Frente (aula de violão completa)