busca

Desperta (Wake)

Ana Nóbrega

Tom: G
[Intro] C  D9(11)  Bm  Em
        C  D9(11)  Bm  Em

E|--------------------------------------------------------------------------------|
B|--------------------------------------------------------------------------------|
G|-2/4-4-4--2/4-4-4--7---------------------2/4-4-4--2/4-4-4--7--------------------|
D|----------------------5-5-5--4-4-4--2--------------------------5-5-5--4-4-4--2--|
A|--------------------------------------------------------------------------------|
E|--------------------------------------------------------------------------------|

E|------------------------------------------------------------------------------------|
B|------------------------------------------------------------------------------------|
G|-2/4-4-4--2/4-4-4--7---------------------2/4-4-4--2/4-4-4--7--9-9-9--11-11-11--12~--|
D|----------------------5-5-5--4-4-4--2-----------------------------------------------|
A|------------------------------------------------------------------------------------|
E|------------------------------------------------------------------------------------|

     C           D9(11)
Ao despertar eu cantarei
     Bm          Em
Teu nome eu proclamarei
    C            D9(11)
No ritmo do teu coração
 Bm        Em
Levarei a salvação
     C                     D9(11)
Teu fogo em meu olhar brilhando está
    Bm           Em
A chama não se apagará
      C             D9(11)
Nas ruas o amor refletirá
      Bm           Em
Tua glória resplandecerá

 C
Tu jamais me deixará
D9(11)
   Em minha vida estás
Bm
  Este amor em meu ser
Em
  Para sempre brilhará

 C
Tu jamais me deixará
D9(11)
   Em minha vida estás
Bm
  Este amor em meu ser
Em
  Para sempre brilhará

( C  D9(11)  Bm  Em )
( C  D9(11)  Bm  Em )

 C             D9(11)
Tu vives em mim   vives em mim
Bm               Em
  Em meu coração    pra sempre
 C             D9(11)
Tu vives em mim   vives em mim
Bm               Em
  Em meu coração    pra sempre

[Solo] C  D9(11)  Bm  Em
       C  D9(11)  Bm  Em

E|--------------------------------------------------------------------------------|
B|--------------------------------------------------------------------------------|
G|-2/4-4-4--2/4-4-4--7---------------------2/4-4-4--2/4-4-4--7--------------------|
D|----------------------5-5-5--4-4-4--2--------------------------5-5-5--4-4-4--2--|
A|--------------------------------------------------------------------------------|
E|--------------------------------------------------------------------------------|

E|------------------------------------------------------------------------------------|
B|------------------------------------------------------------------------------------|
G|-2/4-4-4--2/4-4-4--7---------------------2/4-4-4--2/4-4-4--7--9-9-9--11-11-11--12~--|
D|----------------------5-5-5--4-4-4--2-----------------------------------------------|
A|------------------------------------------------------------------------------------|
E|------------------------------------------------------------------------------------|

     C                     D9(11)
Teu fogo em meu olhar brilhando está
    Bm           Em
A chama não se apagará
      C             D9(11)
Nas ruas o amor refletirá
      Bm           Em
Tua glória resplandecerá

 C
Tu jamais me deixará
D9(11)
   Em minha vida estás
Bm
  Este amor em meu ser
Em
  Para sempre brilhará

 C
Tu jamais me deixará
D9(11)
   Em minha vida estás
Bm
  Este amor em meu ser
Em
  Para sempre brilhará

( C  D9(11)  Bm  Em )
( C  D9(11)  Bm  Em )

 C             D9(11)
Tu vives em mim   vives em mim
Bm               Em
  Em meu coração    pra sempre
 C             D9(11)
Tu vives em mim   vives em mim
Bm               Em
  Em meu coração    pra sempre

( C  D9(11)  Bm  Em )
( C  D9(11)  Bm  Em )

C          D9(11)          Bm           Em
 Pra sempre,     pra sempre,  pra sempre  neste amor
C          D9(11)          Bm           Em
 Pra sempre,     pra sempre,  pra sempre  neste amor
C          D9(11)          Bm           Em
 Pra sempre,     pra sempre,  pra sempre  neste amor
C          D9(11)          Bm           Em
 Pra sempre,     pra sempre,  pra sempre  neste amor

 C
Tu jamais me deixará
D9(11)
   Em minha vida estás
Bm
  Este amor em meu ser
Em
  Para sempre brilhará

 C
Tu jamais me deixará
D9(11)
   Em minha vida estás
Bm
  Este amor em meu ser
Em
  Para sempre brilhará

 C             D9(11)
Tu vives em mim   vives em mim
Bm               Em
  Em meu coração    pra sempre
 C             D9(11)
Tu vives em mim   vives em mim
Bm               Em
  Em meu coração    pra sempre

[Final] C  D9(11)  Bm  Em
        C  D9(11)  Bm  Em

E|--------------------------------------------------------------------------------|
B|--------------------------------------------------------------------------------|
G|-2/4-4-4--2/4-4-4--7---------------------2/4-4-4--2/4-4-4--7--------------------|
D|----------------------5-5-5--4-4-4--2--------------------------5-5-5--4-4-4--2--|
A|--------------------------------------------------------------------------------|
E|--------------------------------------------------------------------------------|

E|------------------------------------------------------------------------------------|
B|------------------------------------------------------------------------------------|
G|-2/4-4-4--2/4-4-4--7---------------------2/4-4-4--2/4-4-4--7--9-9-9--11-11-11--12~--|
D|----------------------5-5-5--4-4-4--2-----------------------------------------------|
A|------------------------------------------------------------------------------------|
E|------------------------------------------------------------------------------------|

Clipes