Existe Um Rio

Ana Nóbrega

Am
123
X02210
Bb
234
X13331
Dm
123
XX0231
Gm
34
355333
Tom: G
[Intro] Bb  Gm  Dm  Am
        Bb  Gm  Dm  Am

#1t1##1t2#E|-13p10--13p10--------------------------------|
B|---------------13p10-----------10---------10-|
G|----------------------12-10-12-----10--12----|
D|---------------------------------------------|
A|---------------------------------------------|
E|---------------------------------------------|#/1t2##/1t1#

#2t1##2t2#E|-13p10--13p10--------------------------------|
B|---------------13p10-----------10------13-10-|
G|----------------------12-10-12-----10--------|
D|---------------------------------------------|
A|---------------------------------------------|
E|---------------------------------------------|#/2t2##/2t1#

#3t1##3t2#E|-13p10--13p10--------------------------------|
B|---------------13p10-----------10---------10-|
G|----------------------12-10-12-----10--12----|
D|---------------------------------------------|
A|---------------------------------------------|
E|---------------------------------------------|#/3t2##/3t1#

#4t1##4t2#E|-13p10--13p10--------------------------------|
B|---------------13p10-----------10------13-10-|
G|----------------------12-10-12-----10--------|
D|---------------------------------------------|
A|---------------------------------------------|
E|---------------------------------------------|#/4t2##/4t1#

           Bb       Gm
Existe um rio onde tudo é bom
          Dm          Am
E uma nascente bem maior que a dor
      Bb       Gm
Um oceano sem medo nenhum
          Dm            Am
Maré que sobe, que sobe

           Bb       Gm
Existe um rio se movendo em mim
             Dm       Am
Vem transbordando o amor de Deus
          Bb          Gm
Com toda força vindo sobre nós
          Dm            Am
Maré que sobe, que sobe

 Bb     Gm
Rompe, rompe
   Dm              Am
Podemos sentir, a terra se abrir
 Bb     Gm
Rompe, rompe
   Dm              Am
Podemos sentir, a terra se abrir

           Bb          Gm
Nós temos vida no rio
           Dm          Am
Nós temos vida no rio
           Bb         Gm
Nós temos vida no rio
           Dm         Am
Nós temos vida no rio

( Bb  Gm  Dm  Am )
( Bb  Gm  Dm  Am )

           Bb       Gm
Existe um rio se movendo em mim
             Dm       Am
Vem transbordando o amor de Deus
          Bb          Gm
Com toda força vindo sobre nós
          Dm            Am
Maré que sobe, que sobe

 Bb     Gm
Rompe, rompe
   Dm              Am
Podemos sentir, a terra se abrir
 Bb     Gm
Rompe, rompe
   Dm              Am
Podemos sentir, a terra se abrir

           Bb          Gm
Nós temos vida no rio
           Dm          Am
Nós temos vida no rio
           Bb         Gm
Nós temos vida no rio
           Dm         Am
Nós temos vida no rio

( Bb  Gm  Dm  Am )
( Bb  Gm  Dm  Am )

         Bb         Gm           Dm     Am
Cadeias vão quebrar e os presos libertar
          Bb              Gm             Dm         Am
Teu rio fluir, Teu rio fluir, Teu rio fluir de nós
          Bb     Gm          Dm        Am
Vamos nos alegrar, nas ruas vamos dançar
           Bb             Gm             Dm          Am
Teu rio fluir, Teu rio fluir, Teu rio fluir de nós
Composição: Colaboração e revisão: Swane BatistaThiago AlmeidaCharles Silva