busca

Porque Estás Comigo

Ana Nóbrega

Tom: D
[Intro] Bm  G  D/F#  A/C#
        Bm  G  D/F#  A/C#

E|-------------14--12--------------------14--12-----------------14--12---------------------------------|
B|--12--12------------ 15----12--12-------------15--10--10---------- 15-12/14-p15-14-15-14-10 --12-----|
G|-----------------------------------------------------------------------------------------------------|
D|-----------------------------------------------------------------------------------------------------|
A|-----------------------------------------------------------------------------------------------------|
E|-----------------------------------------------------------------------------------------------------|

E|-------------14--12--------------------14--12-----------------14--12---------------------------------|
B|--12--12------------ 15----12--12-------------15--10--10---------- 15-12/14-p15-14-15-14-10 --12-----|
G|-----------------------------------------------------------------------------------------------------|
D|-----------------------------------------------------------------------------------------------------|
A|-----------------------------------------------------------------------------------------------------|
E|-----------------------------------------------------------------------------------------------------|

 Bm
Mil cairão ao meu lado
 G
Dez mil à minha direita
    A/C#
Mas eu não serei atingido
          Bm
Diz o Senhor

 Bm
Mil cairão ao meu lado
 G
Dez mil à minha direita
    A/C#
Mas eu não serei atingido
          Bm
Diz o Senhor

[Solo]

E|--15-15--14-14--12-12-----------------------------------------------------12-12--15-15--14-14--12-12------------|
B|-----------------------------15-15/17-------------12-12--14-14--15-15---------------------------------------15--|
G|----------------------------------------------------------------------------------------------------------------|
D|----------------------------------------------------------------------------------------------------------------|
A|----------------------------------------------------------------------------------------------------------------|
E|----------------------------------------------------------------------------------------------------------------|

                G
Porque estás comigo
A                 Bm
  Porque estás comigo
D                 G
  Porque estás comigo
A             Bm
  Eu não temerei

                G
Porque estás comigo
A                 Bm
  Porque estás comigo
D                 G
  Porque estás comigo
A
  Eu não temerei

[Solo] Bm  G  D/F#  A/C#
       Bm  G  D/F#  A/C#

E|-------------14--12--------------------14--12-----------------14--12---------------------------------|
B|--12--12------------ 15----12--12-------------15--10--10---------- 15-12/14-p15-14-15-14-10 --12-----|
G|-----------------------------------------------------------------------------------------------------|
D|-----------------------------------------------------------------------------------------------------|
A|-----------------------------------------------------------------------------------------------------|
E|-----------------------------------------------------------------------------------------------------|

E|-------------14--12--------------------14--12-----------------14--12---------------------------------|
B|--12--12------------ 15----12--12-------------15--10--10---------- 15-12/14-p15-14-15-14-10 --12-----|
G|-----------------------------------------------------------------------------------------------------|
D|-----------------------------------------------------------------------------------------------------|
A|-----------------------------------------------------------------------------------------------------|
E|-----------------------------------------------------------------------------------------------------|

 Bm                      G    A
Se me permites passar pelo fogo
 Bm                      G   A
Tua promessa é que a chama não arderá
 Bm                                G
Se me permites passar pelas muitas águas
      A           Bm
Elas não me afogarão

                G
Porque estás comigo
A                 Bm
  Porque estás comigo
D                 G
  Porque estás comigo
A             Bm
  Eu não temerei

                G
Porque estás comigo
A                 Bm
  Porque estás comigo
D                 G
  Porque estás comigo
A             Bm
  Eu não temerei

 Bm
Vou passar pelo fogo
E não vou me queimar
 Bm
Vou passar pelas águas
Não vou me afogar
 Bm
Vou saltar as muralhas
Eu vou conquistar
  G           A
Vou correr, vou voar, vencer

 C#m
Vou passar pelo fogo
E não vou me queimar
 C#m
Vou passar pelas águas
Não vou me afogar
 C#m
Vou saltar as muralhas
Eu vou conquistar
 A           B
Vou correr, vou voar, vencer
                               C#m  E
Vou vencer, vou vencer, vou vencer

                A
Porque estás comigo
B                 C#m
  Porque estás comigo
E                 A
  Porque estás comigo
B             C#m
  Eu não temerei

                A
Porque estás comigo
B                 C#m
  Porque estás comigo
E                 A
  Porque estás comigo
B
  Eu não temerei

[Final] C#m  A  E/G#  B/D#
        C#m  A  E/G#  B/D#

E|-------------16--14--------------------16-14-----------------16--14----------------------------------|
B|--14--14------------ 17----14--14-------------17--12--12---------- 17-14/16-p17-16-17-16-12 --14-----|
G|-----------------------------------------------------------------------------------------------------|
D|-----------------------------------------------------------------------------------------------------|
A|-----------------------------------------------------------------------------------------------------|
E|-----------------------------------------------------------------------------------------------------|

E|-------------16--14--------------------16-14-----------------16--14----------------------------------|
B|--14--14------------ 17----14--14-------------17--12--12---------- 17-14/16-p17-16-17-16-12 --14-----|
G|-----------------------------------------------------------------------------------------------------|
D|-----------------------------------------------------------------------------------------------------|
A|-----------------------------------------------------------------------------------------------------|
E|-----------------------------------------------------------------------------------------------------|

Clipes

Cifra Club Pro

Aproveite o Cifra Club com benefícios exclusivos e sem anúncios
7 dias grátis
Cifra Club Pro
Aproveite o Cifra Club com benefícios exclusivos e sem anúncios
7 dias grátis