busca

Quando Ele Vem

Ana Nóbrega

Tom: C
[Intro] F  C  G
        F  C  G

E|------5~-----5~--------------------|
B|--------------------5~---5--3~-----|
G|---5------5------5-----------------|
D|-----------------------------------|
A|-----------------------------------|
E|-----------------------------------|

E|------5~-----5~--------------------|
B|--------------------5~---5--3~-----|
G|---5------5------5-----------------|
D|-----------------------------------|
A|-----------------------------------|
E|-----------------------------------|

F                           C
 Nosso amigo, Santo Espírito
F                       C
 Venha aquecer os corações
F                             C
 Vem com cura e todo o seu poder
F                        C      G
 Vem manifestar os seus sinais

F
O que dizer?
                        C     G
O que fazer quando ele vem aqui?
  F
Mais que ser bem-vindo
                        C      G
Nós te desejamos outra vez  aqui

( F  C  G )
( F  C  G )

F                          C
 Nosso amigo Santo Espírito
F                   C
Esperamos pelo teu soprar
F                       C
 Com seu óleo venha nos ungir
F                         C
E com seu fogo vem nos batizar

F
O que dizer?
                        C     G
O que fazer quando ele vem aqui?
 F
Mais que ser bem-vindo
 F                      C       G
Nós te desejamos outra vez   aqui

F
O que dizer?
                        C     G
O que fazer quando ele vem aqui?
 F
Mais que ser bem-vindo
                        C       G
Nós te desejamos outra vez   aqui

( F  C )
( F  C )

 F
Faz de novo   faz de novo
C
O teu povo clama a ti
 F
Faz de novo   faz de novo
C
O teu povo clama a ti
 F
Faz de novo   faz de novo
C
O teu povo clama a ti
 F
Faz de novo   faz de novo
C
O teu povo clama a ti

F
O que dizer?
                        C     G
O que fazer quando ele vem aqui?
 F
Mais que ser bem-vindo
                        C       G
Nós te desejamos outra vez   aqui

F
O que dizer?
                        C     G
O que fazer quando ele vem aqui?
 F
Mais que ser bem-vindo
                        C       G
Nós te desejamos outra vez   aqui

[Final] F  C  G
        F  C  G

E|------5~-----5~--------------------|
B|--------------------5~---5--3~-----|
G|---5------5------5-----------------|
D|-----------------------------------|
A|-----------------------------------|
E|-----------------------------------|

E|------5~-----5~--------------------|
B|--------------------5~---5--3~-----|
G|---5------5------5-----------------|
D|-----------------------------------|
A|-----------------------------------|
E|-----------------------------------|

Clipes