Quando Ele Vem

Ana Nóbrega

C
123
X32010
F
234
133211
G
123
320003
Tom: G
[Intro] F  C  G
        F  C  G

#1t1##1t2#E|------5~-----5~--------------------|
B|--------------------5~---5--3~-----|
G|---5------5------5-----------------|
D|-----------------------------------|
A|-----------------------------------|
E|-----------------------------------|#/1t2##/1t1#

#2t1##2t2#E|------5~-----5~--------------------|
B|--------------------5~---5--3~-----|
G|---5------5------5-----------------|
D|-----------------------------------|
A|-----------------------------------|
E|-----------------------------------|#/2t2##/2t1#

F                           C
 Nosso amigo, Santo Espírito
F                       C
 Venha aquecer os corações
F                             C
 Vem com cura e todo o seu poder
F                        C      G
 Vem manifestar os seus sinais

F
O que dizer?
                        C     G
O que fazer quando ele vem aqui?
  F
Mais que ser bem-vindo
                        C      G
Nós te desejamos outra vez  aqui

( F  C  G )
( F  C  G )

F                          C
 Nosso amigo Santo Espírito
F                   C
Esperamos pelo teu soprar
F                       C
 Com seu óleo venha nos ungir
F                         C
E com seu fogo vem nos batizar

F
O que dizer?
                        C     G
O que fazer quando ele vem aqui?
 F
Mais que ser bem-vindo
 F                      C       G
Nós te desejamos outra vez   aqui

F
O que dizer?
                        C     G
O que fazer quando ele vem aqui?
 F
Mais que ser bem-vindo
                        C       G
Nós te desejamos outra vez   aqui

( F  C )
( F  C )

 F
Faz de novo   faz de novo
C
O teu povo clama a ti
 F
Faz de novo   faz de novo
C
O teu povo clama a ti
 F
Faz de novo   faz de novo
C
O teu povo clama a ti
 F
Faz de novo   faz de novo
C
O teu povo clama a ti

F
O que dizer?
                        C     G
O que fazer quando ele vem aqui?
 F
Mais que ser bem-vindo
                        C       G
Nós te desejamos outra vez   aqui

F
O que dizer?
                        C     G
O que fazer quando ele vem aqui?
 F
Mais que ser bem-vindo
                        C       G
Nós te desejamos outra vez   aqui

[Final] F  C  G
        F  C  G

#3t1##3t2#E|------5~-----5~--------------------|
B|--------------------5~---5--3~-----|
G|---5------5------5-----------------|
D|-----------------------------------|
A|-----------------------------------|
E|-----------------------------------|#/3t2##/3t1#

#4t1##4t2#E|------5~-----5~--------------------|
B|--------------------5~---5--3~-----|
G|---5------5------5-----------------|
D|-----------------------------------|
A|-----------------------------------|
E|-----------------------------------|#/4t2##/4t1#
Composição: Ana Nobrega / André Aquino / Jow FelixColaboração e revisão: Thiago AlmeidaHudson KempRobson santosAlex silva