Trevo (Tu) (part. Tiago Iorc)

Anavitória

C9
1
X300XX
D4
1
X500XX
D4/F#
1
2X00XX
Em7
0X00XX
G/B
1
X200XX
G5
1
3X00XX
Tom: G
[Primeira Parte - Primeira Estrofe]

 G5    C9
Tu é trevo de quatro folhas
G5
É manhã de domingo à toa
G/B
    Conversa rara e boa
Em7
    Pedaço de sonho
     C9
Que faz meu querer acordar
     G5         D4
Pra vida, ai ai ai


Dedilhado: Parte 1
   G5                C9
E|--------------------------------
B|--------------------------------
G|---0---0----0---0----0---0----0-
D|---0---0----0---0----0---0----0-
A|-------------------3---3----3---
E|-3---3----3---3-----------------

E|----------| 
B|----------| 
G|--0-------| 
D|--0-------| 
A|3---------| 
E|----------| 



Parte 2
   G5                G/B
E|--------------------------------
B|--------------------------------
G|---0---0----0---0----0---0----0-
D|---0---0----0---0----0---0----0-
A|-------------------2---2----2---
E|-3---3----3---3-----------------

E|----------| 
B|----------| 
G|--0-------| 
D|--0-------| 
A|2---------| 
E|----------| 



Parte 3
   Em7               C9
E|--------------------------------
B|--------------------------------
G|---0---0----0---0----0---0----0-
D|---0---0----0---0----0---0----0-
A|-------------------3---3----3---
E|-0---0----0---0-----------------

E|----------| 
B|----------| 
G|--0-------| 
D|--0-------| 
A|3---------| 
E|----------| 



Parte 4
   G5                 D4
E|--------------------------------
B|--------------------------------
G|---0---0----0---0----0---0----0-
D|---0---0----0---0----0---0----0-
A|-------------------5---5----5---
E|-3---3----3---3-----------------

E|----------| 
B|----------| 
G|--0-------| 
D|--0-------| 
A|5---------| 
E|----------| 


[Primeira Parte – Segunda Estrofe]

 G5     C9
Tu que tem esse abraço casa
    G5
Se decidir bater asa
    G/B                  Em7
Me leva contigo pra passear
    C9                        
Eu juro afeto e paz não vão te 
     G5
faltar
      D4/F#
Ai ai ai


Dedilhado: Parte 1
  G5                C9
E|--------------------------------
B|--------------------------------
G|---0---0----0---0----0---0----0-
D|---0---0----0---0----0---0----0-
A|-------------------3---3----3---
E|-3---3----3---3-----------------

E|----------| 
B|----------| 
G|--0-------| 
D|--0-------| 
A|3---------| 
E|----------| 



Parte 2
   G5                G/B
E|--------------------------------
B|--------------------------------
G|---0---0----0---0----0---0----0-
D|---0---0----0---0----0---0----0-
A|-------------------2---2----2---
E|-3---3----3---3-----------------

E|----------| 
B|----------| 
G|--0-------| 
D|--0-------| 
A|2---------| 
E|----------| 



Parte 3
   Em7               C9
E|--------------------------------
B|--------------------------------
G|---0---0----0---0----0---0----0-
D|---0---0----0---0----0---0----0-
A|-------------------3---3----3---
E|-0---0----0---0-----------------

E|----------| 
B|----------| 
G|--0-------| 
D|--0-------| 
A|3---------| 
E|----------| 



Parte 4
   G5                D4/F#
E|--------------------------------
B|--------------------------------
G|---0---0----0---0----0---0----0-
D|---0---0----0---0----0---0----0-
A|--------------------------------
E|-3---3----3---3----2---2----2---

E|----------| 
B|----------| 
G|--0-------| 
D|--0-------| 
A|----------| 
E|2---------| 


[Refrão]

Em7
Ah...
       C9                        
Eu só quero o leve da vida pra te 
    G5
levar
     D4/F#
E o tempo para
Em7
Ah...
C9 É a sorte de levar a hora pra D4 passear G/B C9 Pra cá e pra lá, pra lá e pra cá G5 C9 G5 C9 Quando aqui tu tá Dedilhado: Parte 1 Em7 C9 E|-------------------------------- B|-------------------------------- G|---0---0----0---0----0---0----0- D|---0---0----0---0----0---0----0- A|-------------------3---3----3--- E|-0---0----0---0----------------- E|----------| B|----------| G|--0-------| D|--0-------| A|3---------| E|----------| Parte 2 G5 D4/F# E|-------------------------------- B|-------------------------------- G|---0---0----0---0----0---0----0- D|---0---0----0---0----0---0----0- A|-------------------------------- E|-3---3----3---3----2---2----2--- E|----------| B|----------| G|--0-------| D|--0-------| A|----------| E|2---------| Parte 3 Em7 C9 E|-------------------------------- B|-------------------------------- G|---0---0----0---0----0---0----0- D|---0---0----0---0----0---0----0- A|-------------------3---3----3--- E|-0---0----0---0----------------- E|----------| B|----------| G|--0-------| D|--0-------| A|3---------| E|----------| Parte 4 D4 E|-------------------------------- B|-------------------------------- G|---0---0----0---0----0---0----0- D|---0---0----0---0----0---0----0- A|-5---5----5---5----5---5----2--- E|-------------------------------- G/B E|----------| B|----------| G|--0-------| D|--0-------| A|2---------| E|----------| Parte 5 C9 E|-------------------------------- B|-------------------------------- G|---0---0----0---0--------------- D|---0---0----0---0--------------- A|-3---3----3---3----3------------ E|-------------------------------- Parte 6 - 2x G5 C9 E|-------------------------------- B|-------------------------------- G|---0---0----0---0----0---0----0- D|---0---0----0---0----0---0----0- A|-------------------3---3----3--- E|-3---3----3---3----------------- E|----------| B|----------| G|--0-------| D|--0-------| A|3---------| E|----------| [Primeira Parte - Primeira Estrofe] G5 C9 Tu é trevo de quatro folhas G5 É manhã de domingo à toa G/B Conversa rara e boa Em7 Pedaço de sonho C9 Que faz meu querer acordar G5 D4 Pra vida, ai ai ai [Primeira Parte – Segunda Estrofe] G5 C9 Tu que tem esse abraço casa G5 Se decidir bater asa G/B Em7 Me leva contigo pra passear C9 Eu juro afeto e paz não vão te G5 faltar D4/F# Ai ai ai [Refrão] Em7 Ah... C9 Eu só quero o leve da vida pra te G5 levar D4/F# E o tempo para Em7 Ah... C9 É a sorte de levar a hora pra D4 passear G/B C9 Pra cá e pra lá, pra lá e pra cá Quando aqui tu tá [Ponte] Em7 C9 Tu G5 D4/F# Tu Em7 C9 Tu D4 Tu [Refrão Final] Em7 Ah... C9 Eu só quero o leve da vida pra te G5 levar D4/F# E o tempo para Em7 Ah... C9 É a sorte de levar a hora pra D4 passear G/B C9 Pra cá e pra lá, pra lá e pra cá G5 Quando aqui tu tá C9 G5 É trevo de quatro folhas C9 G5 É trevo de quatro folhas é C9 G5 É trevo de quatro folhas C9 G5 É trevo de quatro folhas é
Composição: Ana Clara Caetano Costa / Thiago IorczeskiColaboração e revisão: Leandro SandimBea M.Marina Reisdeivid diase mais 6
Videoaula Trevo (Tu) (part. Tiago Iorc) (aula de violão)

Utilizamos cookies para personalizar sua experiência. Ao acessar o site, você concorda com a nossa Política de Privacidade.