Trevo (Tu) (part. Tiago Iorc)

Anavitória

C9
1
X300XX
D4
1
X500XX
D4/F#
1
2X00XX
Em7
0X00XX
G/B
1
X200XX
G5
1
3X00XX
Tom: G
[Primeira Parte - Primeira Estrofe]

 G5    C9
Tu é trevo de quatro folhas
G5
É manhã de domingo à toa
G/B
    Conversa rara e boa
Em7
    Pedaço de sonho 
     C9
Que faz meu querer acordar
     G5         D4
Pra vida, ai ai ai

#1t1#Dedilhado: Parte 1
   G5                C9
#1t2#E|------------------------------------------|
B|------------------------------------------|
G|---0---0----0---0----0---0----0---0-------|
D|---0---0----0---0----0---0----0---0-------|
A|-------------------3---3----3---3---------|
E|-3---3----3---3---------------------------|#/1t2##/1t1#

#2t1#Parte 2
   G5                G/B
#2t2#E|------------------------------------------|
B|------------------------------------------|
G|---0---0----0---0----0---0----0---0-------|
D|---0---0----0---0----0---0----0---0-------|
A|-------------------2---2----2---2---------|
E|-3---3----3---3---------------------------|#/2t2##/2t1#

#3t1#Parte 3
   Em7               C9
#3t2#E|------------------------------------------|
B|------------------------------------------|
G|---0---0----0---0----0---0----0---0-------|
D|---0---0----0---0----0---0----0---0-------|
A|-------------------3---3----3---3---------|
E|-0---0----0---0---------------------------|#/3t2##/3t1#

#4t1#Parte 4
   G5                 D4
#4t2#E|------------------------------------------|
B|------------------------------------------|
G|---0---0----0---0----0---0----0---0-------|
D|---0---0----0---0----0---0----0---0-------|
A|-------------------5---5----5---5---------|
E|-3---3----3---3---------------------------|#/4t2##/4t1#

[Primeira Parte – Segunda Estrofe]

 G5     C9
Tu que tem esse abraço casa
    G5
Se decidir bater asa
    G/B                  Em7
Me leva contigo pra passear
    C9                             G5
Eu juro afeto e paz não vão te faltar
      D4/F#
Ai ai ai

#5t1#Dedilhado: Parte 1
  G5                C9
#5t2#E|------------------------------------------|
B|------------------------------------------|
G|---0---0----0---0----0---0----0---0-------|
D|---0---0----0---0----0---0----0---0-------|
A|-------------------3---3----3---3---------|
E|-3---3----3---3---------------------------|#/5t2##/5t1#

#6t1#Parte 2
   G5                G/B
#6t2#E|------------------------------------------|
B|------------------------------------------|
G|---0---0----0---0----0---0----0---0-------|
D|---0---0----0---0----0---0----0---0-------|
A|-------------------2---2----2---2---------|
E|-3---3----3---3---------------------------|#/6t2##/6t1#

#7t1#Parte 3
   Em7               C9
#7t2#E|------------------------------------------|
B|------------------------------------------|
G|---0---0----0---0----0---0----0---0-------|
D|---0---0----0---0----0---0----0---0-------|
A|-------------------3---3----3---3---------|
E|-0---0----0---0---------------------------|#/7t2##/7t1#

#8t1#Parte 4
   G5                D4/F#
#8t2#E|------------------------------------------|
B|------------------------------------------|
G|---0---0----0---0----0---0----0---0-------|
D|---0---0----0---0----0---0----0---0-------|
A|------------------------------------------|
E|-3---3----3---3----2---2----2---2---------|#/8t2##/8t1#

[Refrão]

Em7
Ah...
       C9                            G5
Eu só quero o leve da vida pra te levar
     D4/F#
E o tempo para
Em7
Ah...
     C9                            D4
É a sorte de levar a hora pra passear
                      G/B      C9
Pra cá e pra lá, pra lá e pra cá
                G5  C9  G5  C9
Quando aqui tu tá

#9t1#Dedilhado: Parte 1
   Em7               C9
#9t2#E|------------------------------------------|
B|------------------------------------------|
G|---0---0----0---0----0---0----0---0-------|
D|---0---0----0---0----0---0----0---0-------|
A|-------------------3---3----3---3---------|
E|-0---0----0---0---------------------------|#/9t2##/9t1#

#10t1#Parte 2
   G5                D4/F#
#10t2#E|------------------------------------------|
B|------------------------------------------|
G|---0---0----0---0----0---0----0---0-------|
D|---0---0----0---0----0---0----0---0-------|
A|------------------------------------------|
E|-3---3----3---3----2---2----2---2---------|#/10t2##/10t1#

#11t1#Parte 3
   Em7               C9
#11t2#E|------------------------------------------|
B|------------------------------------------|
G|---0---0----0---0----0---0----0---0-------|
D|---0---0----0---0----0---0----0---0-------|
A|-------------------3---3----3---3---------|
E|-0---0----0---0---------------------------|#/11t2##/11t1#

#12t1#Parte 4
   D4                         G/B
#12t2#E|------------------------------------------|
B|------------------------------------------|
G|---0---0----0---0----0---0----0---0-------|
D|---0---0----0---0----0---0----0---0-------|
A|-5---5----5---5----5---5----2---2---------|
E|------------------------------------------|#/12t2##/12t1#

#13t1#Parte 5
   C9
#13t2#E|------------------------------------------|
B|------------------------------------------|
G|---0---0----0---0-------------------------|
D|---0---0----0---0-------------------------|
A|-3---3----3---3----3----------------------|
E|------------------------------------------|#/13t2##/13t1#

#14t1#Parte 6 - 2x
  G5                C9
#14t2#E|------------------------------------------|
B|------------------------------------------|
G|---0---0----0---0----0---0----0---0-------|
D|---0---0----0---0----0---0----0---0-------|
A|-------------------3---3----3---3---------|
E|-3---3----3---3---------------------------|#/14t2##/14t1#

[Primeira Parte - Primeira Estrofe]

 G5    C9
Tu é trevo de quatro folhas
G5
É manhã de domingo à toa
G/B
    Conversa rara e boa
Em7
    Pedaço de sonho 
     C9
Que faz meu querer acordar
     G5         D4
Pra vida, ai ai ai


[Primeira Parte – Segunda Estrofe]

 G5     C9
Tu que tem esse abraço casa
    G5
Se decidir bater asa
    G/B                  Em7
Me leva contigo pra passear
    C9                             G5
Eu juro afeto e paz não vão te faltar
      D4/F#
Ai ai ai


[Refrão]

Em7
Ah...
       C9                            G5
Eu só quero o leve da vida pra te levar
     D4/F#
E o tempo para
Em7
Ah...
     C9                            D4
É a sorte de levar a hora pra passear
                      G/B      C9
Pra cá e pra lá, pra lá e pra cá
                
Quando aqui tu tá


[Ponte]

 Em7  C9
Tu 
 G5  D4/F#
Tu
 Em7  C9
Tu
 D4
Tu


[Refrão Final]

Em7
Ah...
       C9                            G5
Eu só quero o leve da vida pra te levar
     D4/F#
E o tempo para
Em7
Ah...
     C9                            D4
É a sorte de levar a hora pra passear
                      G/B      C9
Pra cá e pra lá, pra lá e pra cá
                G5
Quando aqui tu tá

    C9                G5
É trevo de quatro folhas
    C9                   G5
É trevo de quatro folhas é
    C9                G5
É trevo de quatro folhas
    C9                   G5
É trevo de quatro folhas é
Composição: Ana Clara Caetano Costa / Thiago IorczeskiColaboração e revisão: Leandro SandimBea M.Marina Reisdeivid diase mais 6
Videoaula Trevo (Tu) (part. Tiago Iorc) (aula de violão)