Deus No Controle

Anderson Freire

A
123
X02220
A/C#
1234
X4X255
A/E
123
0X2220
A9
12
X02200
A9/B
123
X22200
A9/C#
123
X4220X
Am
123
X02210
Am/C
1234
X3225X
Am6
1234
5X455X
B
234
X24442
B/Eb
1234
X6X477
B/F#
1234
XX4442
B4/E
234
024452
B4/Eb
234
X64457
B4/F#
234
224452
C#m
234
X46654
C#m/E
1234
X7669X
C#m7
34
X46454
E
123
022100
E/B
123
X22100
E/G#
1234
4X245X
E4
123
022200
E5
12
022XXX
E7M
1234
XX2444
E9
123
024100
F#/C#
234
X44322
F#m
34
244222
F#m7
1234
2X222X
F#m7(11)
123
2X220X
F#m7(11)/C#
134
X44200
G#5
134
466XXX
Tom: G
[Intro] E5 G#5 E4 B A9/C#


                          E5
E|-------------------0----2----4--
B|----0----2----4-----------------
G|--------------------------------
D|--------------------------------
A|--------------------------------
E|--------------------------------

E|---------------------------------|
B|--0------------------------------|
G|---------------------------------|
D|---------------------------------|
A|---------------------------------|
E|---------------------------------|



                          G#5
E|-------------------0----2----4--
B|----0----2----4-----------------
G|--------------------------------
D|--------------------------------
A|--------------------------------
E|--------------------------------

E|---------------------------------|
B|--0------------------------------|
G|---------------------------------|
D|---------------------------------|
A|---------------------------------|
E|---------------------------------|



                          E4
E|-------------------0----2----4--
B|----0----2----4-----------------
G|--------------------------------
D|--------------------------------
A|--------------------------------
E|--------------------------------

E|--2----0-------------------------|
B|---------------------------------|
G|---------------------------------|
D|---------------------------------|
A|---------------------------------|
E|---------------------------------|



      B                   A9/C#
E|----2----4----2----0------------
B|------------------------2-------
G|--------------------------------
D|--------------------------------
A|--------------------------------
E|--------------------------------


E
Deus não permite um problema
B4/E
Porque ele quer o seu mal
C#m
Deus está gerando em você,
  A9
Maturidade espiritual

E
E toda a tempestade
B/Eb
Vai ser pra lhe projetar
    C#m7
Pra terra firme da experiência
A9
Deus está querendo lhe ensinar

F#m
   Deus que está no controle
E9       E7M
  Tranquilize sua alma
   A
Ninguém amadurece sorrindo eu sei
    B4/E       B
Mas Deus é colecionador de lágrimas

F#m7
    Ele guarda no odre
E
 Não se esquece de uma gota sequer
A9                       A 
Chore em Deus e vai regando a 
              B
semente da fé

          E
Como conhecer um Deus que abre porta
B Se não houver porta fechada? C#m7 Como conhecer um Deus que faz milagres A9 Se for possível a minha causa? E Deus está no controle de tudo B/Eb Deus está no controle de tudo C#m7 Deus está no controle de tudo A9 Descansa coração... A B Há um propósito de De---us nessa C#m questão (F#m B C#m) A Deus que está no controle E E9 Tranquilize sua alma A Ninguém amadurece sorrindo eu sei X X X Mas Deus é colecionador de lágrimas A9 Ele guarda no odre E/B Não esquece de uma gota sequer F#/C# Chore em Deus e vai regando a B/F# semente da fé E Como conhecer um Deus que abre porta B/F# Se não houver porta fechada? C#m7 Como conhecer um Deus que faz milagres A9/B Se for possível a minha causa? E Deus está no controle de tudo B/Eb Deus está no controle de tudo C#m7 Deus está no controle de tudo A/C# Descansa coração... F#m7(11)/C# B/F# Há um propósito de De---us nessa A/C# questão (B/F#) C#m B4/F# Dentro dos problemas e---stão os A9 E propó---sitos de Deus C#m/E B4/F# Ele trata e prepa-ra Am E/G# Pra entrega-r o que prometeu C#m7 B/Eb Não é a promessa qu---e está A/C# E/B demora---ndo pra chega-r F#m7(11) Ela está pronta Am/C Am6 E/B é você que Deus quer prepara---r E9 Como conhecer um Deus que abre porta B Se não houver porta fechada? C#m7 Como conhecer um Deus que faz milagres A9/B Se for possível a minha causa? E Deus está no controle de tudo B4/Eb Deus está no controle de tudo C#m7 Deus está no controle de tudo A/E Descansa coração... E Há um propósito de Deus nessa questão
Composição: Anderson FreireColaboração e revisão: rosilene cavalheiro