Um Novo Endereço

Anderson Freire

Ab
234
431114
Ab/C
1234
X3X144
Ab/C#
34
X46544
Ab7/C
1234
X3414X
Ab9
234
468544
Bbm
234
X13321
Cm7
34
X35343
Db
234
X46664
Db/G#
1234
4X312X
Db7M
234
X46564
12
XX0101
Eb
234
X65343
Eb/G
1234
3X134X
Eb7
1234
X6564X
Fm
34
133111
Fm7
1234
1X111X
Tom: G
Solo intro:


E|-------8-8-9-8-------8-9-8------
B|-----------------9------------8-
G|-----8--------------8-----------
D|--------------------------------
A|--------------------------------
E|--------------------------------

E|----8-9-8—8-9-8-------------8-6---
B|9-11------------------6--6-8-9----
G|----------------------------------
D|----------------------------------
A|----------------------------------
E|----------------------------------

E|----------------------------- 
B|---8-6----------------------- 
G|----------------------------- 
D|----------------------------- 
A|----------------------------- 
E|----------------------------- 


Intro:Ab Db Ab Eb Ab Db Fm7 Cm7 Db

            Ab9  Db/G#
Em breve voarei
                     Ab9 Ab/C#
para as bodas do meu rei
             Fm7                   
Não vou negociar com o mundo minha 
DbAb                Eb
Tão certo como Deus um dia chegará
                   Ab
Enquanto eu vivo aqui
(Estou focalizado no que vai 
acontecer)
   Db/G#
(Já é ultima hora eu não posso me 
perder)
                   Ab Db/G#
eu sinto o céu em mim
             Fm7             Eb/G 
Mas a glória maior Deus reservou 
    Ab
pra mim
                  Eb
No encontro triunfal, no cerimonial

     Fm7
Vale pena ser fiel eu vou morar no 
céu
       Db7M
Eu não abro mão do céu, meu destino 
é o céu
Bbm Deus vai me arrebatar com ele vou voar Cm7 Db Tenho um endereço novo aqui não é Eb Fm o meu lugar Fm7 Vale pena ser fiel eu vou morar no céu Db7M Eu não abro mão do céu, meu destino é o céu Bbm Deus vai me arrebatar com ele vou voar Eb Tenho um endereço novo Fm7 Meu endereço é na cidade de Deus Db7M Em ruas de ouro eu vou caminhar Ab Estou imaginando a árvore da vida Cm7 Em questão de tempo eu irei pra lá Fm7 Meu endereço é na cidade de Deus Db7M O meu passaporte eu já conquistei Ab Autenticado pelo sangue do cordeiro Eb/G Vou morar pra sempre juntinho de Fm Db Deus Ab Db Santo, Santo, Santo Ab No céu eu vou cantar (Santo) ,com os anjos vou cantar Eb No endereço novo eu só quero adorar Fm7 Db Santo, Santo, Santo, Santo Ab Em glória eu vou voar, pra casa eu vou voar Eb No endereço novo eu só quero adorar Ab Ab/C O Rei está voltando Db O Rei está voltando Eb7 Db A trombeta está soando o meu nome Ab a chamar Ab Ab7/C O Rei está voltando Db O Rei está voltando Eb Fm7 Db Aleluia, ele vem me buscar Ab Eb Db Bbm Fm7 Ab Db Bbm
Composição: Anderson Freire / Dedé De JesusColaboração e revisão: Guilherme CardosoDIELLISTON DUARTEDennis Tody