Camisa Listrada

Antony e Gabriel

Am
123
X02210
C
123
X32010
Dm
123
XX0231
F
234
133211
G
123
320003
Tom: G
[Intro]  C

#1t1##1t2#E|-3------------3------------|
B|---5-3----------5-3--------|
G|-------5-4--5--------------|
D|---------------------------|
A|---------------------------|
E|---------------------------|#/1t2##/1t1#

       C
Você é linda toda maquiada
 Ou com a camisa listrada
 Do meu guarda roupa
                   Am
 Que eu não uso mais
 Você na minha cama
 Acordando de pijama ou pronta pra sair
 Pra mim tanto faz
  F
 Sou louco por você de noite ou de manha
                                      G
 E aí se for clichê mulher eu sou seu fã
 F         G
Uuuuuuuh
               C
Eu amo o seu cabelo seu olhar me da um gelo sua boca tem um doce mel  
  Am                                                                       F
 O som da sua voz me acalma amor e só pensar em nós me faz fazer papel de bobo
                                         G          G
 Lá vou eu aí de novo dizer que sou seu fã, de novo

 Am            F                     C
Te quero todo dia cada dia quero um pouco mais
    G
 Aumenta a dose de você
   Am             F                       C
 Fiquei completo certo que esse bem é só você quem faz
    G
 Por isso quero te dizer
  Dm             F                   C      G
 Pra essa vida a dois amor não tem vacina  aaah 
             G                      C
 Então se depender de mim vai ser rotina

Solo : 2 Tempo cada Nota ( C Am ) Final do solo : Meio tempo ( F G)

[Solo]

#2t1##2t2#E|----------------------------------|
B|--8-8-5-5-3-3-------3-3~5---------|
G|--------------5-4-5---------------|
D|----------------------------------|
A|----------------------------------|
E|----------------------------------|#/2t2##/2t1#

#3t1##3t2#E|----------------------------------|
B|--8-8-5-5-3-3-------3-------------|
G|--------------5-4-5---4~2---------|
D|----------------------------------|
A|----------------------------------|
E|----------------------------------|#/3t2##/3t1#

#4t1##4t2#E|----------------------------------|
B|--8-8-5-5-3-3-------3-3~5---------|
G|--------------5-4-5---------------|
D|----------------------------------|
A|----------------------------------|
E|----------------------------------|#/4t2##/4t1#

#5t1##5t2#E|----------------------------------|
B|--8-8-5-5-3-3-------3-------------|
G|--------------5-4-5---2-4-4~5-4~--|
D|----------------------------------|
A|----------------------------------|
E|----------------------------------|#/5t2##/5t1#

         C
 Você é linda quando tem ciúme fala brava
 Quando aumenta o volume sobe o tom de voz
Am
 E esse seu sorriso, esse seu perfume vicio desejo feroz,
F
 Sou louco por você de noite ou de manhã
                                      G
 E ai se for clichê, mulher eu sou seu fã
Composição: MURILO MOURA / PABLO AIRAMColaboração e revisão: Miguel MerliEdson PedrosoGuilhere PizziMatheus