busca

Seu Padre

Antony e Gabriel

Tom: Db (forma dos acordes no tom de C) Capotraste na 1ª casa
[Intro] C  F  C

E|--------------------------------------|
B|-------------3-3/5~-------6p5-3-------|
G|-3/5-5-5-5-5----------3/5-------4-5~--|
D|--------------------------------------|
A|--------------------------------------|
E|--------------------------------------|

 C                       G
Tava tudo planejado, os móveis
                                    Am
O buffet da festa e a lista de convidados
                      F
Comprei tudo do mais caro
              Dm                           F
Fiz curso de noivo mas não vai servir pra nada
                C                        G
Desculpe o linguajar, mas ela foi uma safada

[Refrão]

C
Oooo seu padre
                          G
Só vim fazer um esclarecimento
Não vai ter mais casamento
                    Am
Cê acredita que ela fez isso comigo
Am/G                 F                     G
Ontem me chamou de amor e hoje cedo me largou

          C
Oooo seu padre
                          G
Só vim fazer um esclarecimento
Não vai ter mais casamento
                    Am
Mas só pra não aumentar o prejuízo
     Am/G              F
Nós desce tudo lá pra casa
                    G                    C      G
Vamos beber que a festa de todo jeito tá paga

[Solo Parte I]

E|----------------------------------------|
B|----------------------5-5-3-3---3-------|
G|-3/5~-----3/5-5-5-5-5---------5---------|
D|----------------------------------------|
A|----------------------------------------|
E|----------------------------------------|

[Solo Parte II]

E|------------------------8-7-5---8-7-5--5-----|
B|-----3-3-3---3-5/8-6-5--------5---------8~---|
G|-3/5-------5---------------------------------|
D|---------------------------------------------|
A|---------------------------------------------|
E|---------------------------------------------|

 C                       G
Tava tudo planejado, os móveis
                                    Am
O buffet da festa e a lista de convidados
                      F
Comprei tudo do mais caro
              Dm                           F
Fiz curso de noivo mas não vai servir pra nada
                C                        G
Desculpe o linguajar, mas ela foi uma safada

[Refrão]

C
Oooo seu padre
                          G
Só vim fazer um esclarecimento
Não vai ter mais casamento
                    Am
Cê acredita que ela fez isso comigo
Am/G                 F                     G
Ontem me chamou de amor e hoje cedo me largou

          C
Oooo seu padre
                          G
Só vim fazer um esclarecimento
Não vai ter mais casamento
                    Am
Mas só pra não aumentar o prejuízo
     Am/G              F
Nós desce tudo lá pra casa
                    G                
Vamos beber que a festa de todo jeito 

C
Oooo seu padre
                          G
Só vim fazer um esclarecimento
Não vai ter mais casamento
                    Am
Cê acredita que ela fez isso comigo
Am/G                 F                     G
Ontem me chamou de amor e hoje cedo me largou

          C
Oooo seu padre
                          G
Só vim fazer um esclarecimento
Não vai ter mais casamento
                    Am
Mas só pra não aumentar o prejuízo
     Am/G              F
Nós desce tudo lá pra casa
                    G                          G  C      
Vamos beber que a festa de todo jeito tá paga

[Solo Final]

E|---------------------|
B|-------------3-3/5~--|
G|-3/5-5-5-5-5---------|
D|---------------------|
A|---------------------|
E|---------------------|

Clipes

Cifra Club Pro

Aproveite o Cifra Club com benefícios exclusivos e sem anúncios
Cifra Club Pro
Aproveite o Cifra Club com benefícios exclusivos e sem anúncios