Am
123
X02210
Am/G
1234
3X221X
C
123
X32010
Dm
123
XX0231
F
234
133211
G
123
320003
Tom: G
[Intro] C  F  C

#1t1##1t2#E|--------------------------------------|
B|-------------3-3/5~-------6p5-3-------|
G|-3/5-5-5-5-5----------3/5-------4-5~--|
D|--------------------------------------|
A|--------------------------------------|
E|--------------------------------------|#/1t2##/1t1#

 C                       G
Tava tudo planejado, os móveis
                                    Am
O buffet da festa e a lista de convidados
                      F
Comprei tudo do mais caro
              Dm                           F
Fiz curso de noivo mas não vai servir pra nada
                C                        G
Desculpe o linguajar, mas ela foi uma safada

[Refrão]

C
Oooo seu padre
                          G
Só vim fazer um esclarecimento
Não vai ter mais casamento
                    Am
Cê acredita que ela fez isso comigo
Am/G                 F                     G
Ontem me chamou de amor e hoje cedo me largou

          C
Oooo seu padre
                          G
Só vim fazer um esclarecimento
Não vai ter mais casamento
                    Am
Mas só pra não aumentar o prejuízo
     Am/G              F
Nós desce tudo lá pra casa
                    G                    C      G
Vamos beber que a festa de todo jeito tá paga

[Solo Parte I]

#2t1##2t2#E|----------------------------------------|
B|----------------------5-5-3-3---3-------|
G|-3/5~-----3/5-5-5-5-5---------5---------|
D|----------------------------------------|
A|----------------------------------------|
E|----------------------------------------|#/2t2##/2t1#

[Solo Parte II]

#3t1##3t2#E|------------------------8-7-5---8-7-5--5-----|
B|-----3-3-3---3-5/8-6-5--------5---------8~---|
G|-3/5-------5---------------------------------|
D|---------------------------------------------|
A|---------------------------------------------|
E|---------------------------------------------|#/3t2##/3t1#

 C                       G
Tava tudo planejado, os móveis
                                    Am
O buffet da festa e a lista de convidados
                      F
Comprei tudo do mais caro
              Dm                           F
Fiz curso de noivo mas não vai servir pra nada
                C                        G
Desculpe o linguajar, mas ela foi uma safada

[Refrão]

C
Oooo seu padre
                          G
Só vim fazer um esclarecimento
Não vai ter mais casamento
                    Am
Cê acredita que ela fez isso comigo
Am/G                 F                     G
Ontem me chamou de amor e hoje cedo me largou

          C
Oooo seu padre
                          G
Só vim fazer um esclarecimento
Não vai ter mais casamento
                    Am
Mas só pra não aumentar o prejuízo
     Am/G              F
Nós desce tudo lá pra casa
                    G                
Vamos beber que a festa de todo jeito 

C
Oooo seu padre
                          G
Só vim fazer um esclarecimento
Não vai ter mais casamento
                    Am
Cê acredita que ela fez isso comigo
Am/G                 F                     G
Ontem me chamou de amor e hoje cedo me largou

          C
Oooo seu padre
                          G
Só vim fazer um esclarecimento
Não vai ter mais casamento
                    Am
Mas só pra não aumentar o prejuízo
     Am/G              F
Nós desce tudo lá pra casa
                    G                          G  C      
Vamos beber que a festa de todo jeito tá paga

[Solo Final]

#4t1##4t2#E|---------------------|
B|-------------3-3/5~--|
G|-3/5-5-5-5-5---------|
D|---------------------|
A|---------------------|
E|---------------------|#/4t2##/4t1#
Composição: Colaboração e revisão: Matheus RossaDionys Martins