busca

Velhos Vícios (Voltei a Beber)

Antony e Gabriel

Tom: E (forma dos acordes no tom de D) Capotraste na 2ª casa
Intro: E   A9 (Com forma de E)

E|----------------------------------------------------|
B|----------------------------------------------------|
G|--6-4-3---3-4-3-----6-4-3---3-4-4---4-3-------------|
D|--------6-----------------6-------------6-3-4-------|
A|----------------------------------------------------|
E|----------------------------------------------------|

E
Cheiro de café
          A9
Dormi de novo com a tv ligada
         F#m
A minha mãe já passou por aqui
         B9
Que papelão cheguei de madrugada! 
A9
Ela não fala nada 
                            C#m
Mas eu tô sabendo que aqui nessa casa 
Eu já não tô cabendo 
F#m                   C#m
E por falar nisso eu sou de novo aquele cara 

(E por falar nisso....)

E|----------------------------------------------------|
B|------------9-11-7-6--------------------------------|
G|--------6-8----------8-6----------------------------|
D|--6-8-9------------------9--------------------------|
A|----------------------------------------------------|
E|----------------------------------------------------|
                      A9
Que não tem mais compromisso 
                            B9
De volta pros meus velhos vícios

E
Eu voltei a beber agora 
Eu tô fumando 
A9
A barba tá crescendo 
Envelheci 10 anos 
F#m
Voltei a ter saudade dela 
             Am B9
O que eu preciso é voltar com ela

E|----------------------------------------------------|
B|----------------------------------------------------|
G|--6-4-3---3-4-3-----6-4-3---3-4-4---4-3-------------|
D|--------6-----------------6-------------6-3-4-------|
A|----------------------------------------------------|
E|----------------------------------------------------|

( E A9 F#m Em E )

D
Ela não fala nada 
                            F#m
Mas eu tô sabendo que aqui nessa casa 
Eu já não tô cabendo 
F#m                   A
E por falar nisso eu sou de novo aquele cara 
E por falar nisso

E|----------------------------------------------------|
B|------------6-8-4-3---------------------------------|
G|--------4-6----------6-4----------------------------|
D|--4-6-7------------------7--------------------------|
A|----------------------------------------------------|
E|----------------------------------------------------|

                      D
Que não tem mais compromisso 
                            E
De volta pros meus velhos vícios

A9
Eu voltei a beber agora 
Eu tô fumando 
D
A barba tá crescendo 
Envelheci 10 anos 
B9
Voltei a ter saudade dela 
             D       E
O que eu preciso é voltar com ela

A9
Eu voltei a beber agora 
Eu tô fumando 
D
A barba tá crescendo 
Envelheci 10 anos 
B9
Voltei a ter saudade dela 
             D       E F#m D
O que eu preciso é voltar com ela
B9
Voltei a ter saudade dela 
             D       E      A
O que eu preciso é voltar com ela
   D
com ela....
A
Cheiro de café

Clipes

Cifra Club Pro

Aproveite o Cifra Club com benefícios exclusivos e sem anúncios
Cifra Club Pro
Aproveite o Cifra Club com benefícios exclusivos e sem anúncios