busca

A Ilha

Armandinho

Verso

E|-----------------------5-----5---5----------------------------------------------8--10--|
A|--7-----7---7------10-----------7---7--5--3--5----5---5----------5/7----7---7----------|      
D|----------9---9--7----------------------------------7---7--5--4-----------9---9--------|
G|---------------------------------------------------------------------------------------|

OBS: Na vezes antes do refrão, há uma pequena alteração na última parte.

E|---------------------5--5--5------------------------------------------------|
A|7-----7---7------10-------7---7--5--3--5----5---5----------5/7--7---7---7/5-|      
D|--------9---9--7------------------------------7---7--5--4---------9---9-----|
G|----------------------------------------------------------------------------|

Refrão

E|-------------------------------------------------------------------------------------------|
A|-5--5--5---5----5--3--3----------3/5--5--5---5----5--3--3----------5--5--5---5-----5--3--3-|
D|---------7---7-------------5--2------------7---7-----------2--3--5---------7---7-----------|
G|------------------------2------------------------------------------------------------------|

|------------------------------------------|
|----------3/5--5--5---5----5---3--3--3----|
|-----5--2-----------7---7-----------------|
|--2---------------------------------------|


Escutar a música e perceber a linha de baixo é fundamental.

Clipes

Cifra Club Pro

Aproveite o Cifra Club com benefícios exclusivos e sem anúncios
Cifra Club Pro
Aproveite o Cifra Club com benefícios exclusivos e sem anúncios