busca

Casa do Sol

Armandinho

Tom: G
[Intro]  G  Bm7  Am7  D7

E|----------------------------------------|
B|----------------------------7--5--------|
G|----------------------------------7--5--|
D|-7h9-7-7----7-7h9--5h7-7-5--------------|
A|----------------------------------------|
E|----------------------------------------|

[Solo]  G  Bm7  Am7  D7

E|-7--8--10--10--8--7--8--10----7--8--10-7h8--7---|---------------------|
B|-8-----------------------8h10-----------------8-|--------8-7h8-8h10-8-|
G|-7----------------------------------------------|-----7-9-------------|
D|------------------------------------------------|7--9-----------------|
A|------------------------------------------------|---------------------|
E|------------------------------------------------|---------------------|

E|-7-8-10-7-10/12--10--8--7----7-|----------7-8-10-|
B|-8----------------------10----8|----7-8-10-------|
G|-7-----------------------------|7h9--------------|
D|-------------------------------|-----------------|
A|-------------------------------|-----------------|
E|-------------------------------|-----------------|

  G               Bm7
Quando chega o entardecer
Am7               D7      [Riff 1]
É impossível não lembrar de você

[Riff 1]

E|-7-7--10/12--10-8-7-----------------|
B|------------------------------------|
G|------------------------------------|
D|------------------------------------|
A|------------------------------------|
E|------------------------------------|

 G                Bm7            Am7
Dos momentos que juntos passamos ao sol
       D7                   G            Bm7
No temporal você estava também ao meu lado
       Am7             D7           [Riff 2]  G
Na grama, na areia de Santa no fim de semana

[Riff 2]

E|-7--8-10--1012--10-8-7--------------|
B|-8----------------------------------|
G|-7----------------------------------|
D|------------------------------------|
A|------------------------------------|
E|------------------------------------|

      Bm7           Am7
Batendo na Casa do Sol
     D7             G
Pra manhã nascer feliz

[Solo]  Bm7  Am7  D7

E|-7------------------------------------------------------7-|
B|---10--8-7--------------------------------7---8b7-8--10---|
G|-----------9-7-----------------------------9--------------|
D|----------------7h9b7h9b7h9--7-----7/10-------------------|
A|--------------------------------10------------------------|
E|----------------------------------------------------------|

 G                Bm7
Quando chega o entardecer
Am7               D7      [Riff 3]
É impossível não lembrar de você

[Riff 3]

E|-------------------------------------------|
B|-----------8-7---8--10-10/12~--------------|
G|-------7-9---------------------------------|
D|-7--9--------------------------------------|
A|-------------------------------------------|
E|-------------------------------------------|

 G                Bm7            Am7
Dos momentos que juntos passamos ao sol
    D7                   G             Bm7
No temporal você estava também ao meu lado
       Am7              D7                  G
Na grama, em paz na pracinha no fim de semana

      Bm7           Am7
Batendo na Casa do Sol
     D7             G
Pra manhã nascer feliz

[Solo]  Bm7  Am7  D7

E|----------------------------------------------------------|
B|--------------------------------------------7-5-77--7-5-77|
G|-------------------------------------5--5-----------------|
D|-7/9--7-5---7-9-7-9---7-9-7-9---9-7--5--5-----------------|
A|----------------------------------------------------------|
E|----------------------------------------------------------|

Eee...
G                Bm7                Am7        D7
A melancolia das ondas quebrando sozinhas sem você
 G                   Bm7                 Am7           D7
Lembrando teu beijo salgado e pedindo um abraço pra aquecer

C7M                   Bm7 [Riff 4]  Am7
O por do sol vai lembrar você

[Riff 4]

E|----------------7~----------------------------|
B|------8b7--8-10-------------------------------|
G|-7-9------------------------------------------|
D|----------------------------------------------|
A|----------------------------------------------|
E|----------------------------------------------|

C7M                   Bm7      Am7  D7
O por do sol vai lembrar você

  G               Bm7
Quando chega o entardecer
Am7               D7
É impossível não lembrar de você
 G                Bm7            Am7
Dos momentos que juntos passamos ao sol
       D7                   G          Bm7
No temporal você estava também ao meu lado
       Am7             D7                  G
Na grama, na areia de Santa no fim de semana

      Bm7           Am7
Batendo na Casa do Sol
     D7             G
Pra manhã nascer feliz

Eee...
G                   Bm7                Am7       D7
A melancolia das ondas quebrando sozinhas sem você
 G                   Bm7                 Am7           D7
Lembrando teu beijo salgado e pedindo um abraço pra aquecer

C7M                   Bm7      Am7
O por do sol vai lembrar você

Clipes

Cifra Club Pro

Aproveite o Cifra Club com benefícios exclusivos e sem anúncios
7 dias grátis
Cifra Club Pro
Aproveite o Cifra Club com benefícios exclusivos e sem anúncios
7 dias grátis