busca

Como Os Animais

Armandinho

Tom: E
Intro: E
E|---------------------------------|
B|-9-x-x-9-x-x-9-x-x-9-x-x-7-8-9---|
G|-9-x-x-9-x-x-9-x-x-9-x-x-7-8-9---|  (2x)
D|-9-x-x-9-x-x-9-x-x-9-x-x-7-8-9---|
A|---------------------------------|
E|---------------------------------|

            A       E            A       E
E|----------------------------------------------------------|
B|-124--4/5~~--5/12~~---124-4/5~~--5/12~--11/12--11/12~~----|
G|------5/6~~--6/13~~-------5/6~~--6/13~--12/13--12/13~~----|  (2x)
D|----------------------------------------------------------|
A|----------------------------------------------------------|
E|----------------------------------------------------------|

        F#                A          E
E|----------------------------------------------------------|
B|-12/14--14--12/14~~--4/5~5~~-------12-11/12~~-------------|
G|-13/15------13/15~~--5/6~~~~--6/13-13-12/13~~-------------|  (2x)
D|----------------------------------------------------------|
A|----------------------------------------------------------|
E|----------------------------------------------------------|

                               A                                   E
De vez em quando eu me sinto assim, maluco e carente a procura de amor
                                A                                        E
De vez em quando eu me sinto sozinho, querendo um carinho, querendo um calor,
                             A                              E
Se de repente eu chegar por aí, sei que voce vai me abrir a porta                 (2x)
                            A                                   E
Mas se meu bem tiver que dormir, só quer te  ver com aquela camisola
           F#    A
Sabe o que mais?                        (2x)
                        E
Fazer amor como os animais...

( A E ) (2x) ( F# A E ) (2x)
E|-----------------------------------------------------------|
B|-11--9--9-11--9-11-9---11-9--9-11--9-11-11/14-14-11---9-9~-|
G|-11--9--9-11--9-11-9---11-9--9-11--9-11-11/14-14-11---9-9~-|
D|-11--9--9-11--9-11-9---11-9--9-11--9-11-11/14-14-11---9-9~-|
A|-----------------------------------------------------------|
E|-----------------------------------------------------------|

E|-----7-7-x-5-5-x-5-5--|
B|-7/9-9-9-x-7-7-x-5-5--|
G|----------------------|
D|----------------------|
A|----------------------|
E|----------------------|

E|-------------------4/5-5-4/5~~-----------------------------|
B|-10/11-11-10/11~~--4/5-5-4/5~~--7/9-9-7/9~~--7/9-9-7/9~~---|
G|-10/11-11-10/11~~--5/6-6-5/6~~--7/9-9-7/9~~--7/9-9-7/9~~---|
D|-10/11-11-10/11~~---------------7/9-9-7/9~~--7/9-9-7/9~~---|
A|-----------------------------------------------------------|
E|-----------------------------------------------------------|

E|-------------------4/5-5-4/5-5~~---------------------------|
B|-10/11-11-10/11~~--4/5-5-4/5-5~~--7/9-9-7/9~~--7-8-9-------|
G|-10/11-11-10/11~~--5/6-6-5/6-6~~--7/9-9-7/9~~--7-8-9-------|
D|-10/11-11-10/11~~-----------------7/9-9-7/9~~--7-8-9-------|
A|-----------------------------------------------------------|
E|-----------------------------------------------------------|

                               A                                   E
De vez em quando eu me sinto assim, maluco e carente a procura de amor
                                A                                        E
De vez em quando eu me sinto sozinho, querendo um carinho, querendo um calor,
                             A                                 E
Se de repente eu chegar por aí, eu sei que voce vai me abrir a porta
                            A                                   E
Mas se meu bem tiver que dormir, só quer te  ver com aquela camisola
           F#    A
Sabe o que mais?
                        E
Fazer amor como os animais...

          F#                        A
Sabe o que mais? (Meu bem eu vou chegar)
                        E
Fazer amor como os animais...

          F#                         A
Sabe o que mais?  (Meu bem eu vou voltar)
                        E
Fazer amor como os animais...

          F#                        A
Sabe o que mais? (Meu bem eu vou chegar)
                        E
Fazer amor como os animais...

Clipes