busca

Desenho de Deus

Armandinho

Tom: A
(intro 2x) A7+  D7+

E|--4h5p4--------4h5p4-------|
B|--------5------------5-----|
G|----------6------------6---|
D|---------------------------|
A|---------------------------|
E|---------------------------|

    A7+
Quando Deus te desenhou
       D7+
Ele tava namorando
    A7+
Quando Deus te desenhou
       D7+
Ele tava namorando
    C#m7
Na beira do mar
             Bm7
Na beira do mar do amor!
    C#m7
Na beira do mar
            Bm7      D/E
Na beira do mar do amor!

A7+   D7+ (2X)

Solo de fundo (enquanto durar A7+   D7+)

E|------4-5-------4-5------4-5------4-5----|
B|--5-5----5----5----7---5----7---5----5---|
G|-----------------------------------------|
D|-----------------------------------------|
A|-----------------------------------------|
E|-----------------------------------------|

A7+
Papai do céu na hora de fazer você
D7+
Ele deve ter caprichado pra valer
A7+
Botou muita pureza no seu coração
D7+
E a sua humildade fez chamar minha atenção
A7+
Tirou a sua voz do própolis e mel
D7+
E o teu sorriso lindo de algum lugar do céu
A7+
O resto deve ser beleza exterior
D7+
Mas o que tem por dentro para mim tem mais valor

(refrão)
    A7+
Quando Deus te desenhou
       D7+
Ele tava namorando
    A7+
Quando Deus te desenhou
       D7+
Ele tava namorando
    C#m7
Na beira do mar
             Bm7
Na beira do mar do amor!
    C#m7
Na beira do mar
            Bm7      D/E
Na beira do mar do amor!

A7+
Papai do céu na hora de fazer você
D7+
Ele deve ter caprichado pra valer

A7+
Botou muita pureza no seu coração
D7+
E a sua humildade fez chamar minha atenção
A7+
Da estrela mais bonita o brilho desse olhar
D7+
Diamante verdadeiro sua palavra foi buscar
A7+
O resto deve ser beleza exterior
D7+
Mas o que tem por dentro para mim tem mais valor

( A7+  D7+ ) (4x)

Solo Final

E|------------------------------------------------|
B|------------------------------------------------|
G|--------9-11-9---------------9------------------|
D|--11-12--------11b12r11--9-----9----------------|
A|---------------------------12----12-12--9-12-9--|
E|------------------------------------------------|

E|------------------------------------------------------|
B|------------------------------------------------------|
G|-----------------11-14-----11-9-----------------------|
D|------------9-11----------------11-9------9b10r9------|
A|-------9-12--------------------------12-9--------12~--|
E|--9-12------------------------------------------------|

Clipes

Cifra Club Pro

Aproveite o Cifra Club com benefícios exclusivos e sem anúncios
Cifra Club Pro
Aproveite o Cifra Club com benefícios exclusivos e sem anúncios