busca

Desenho de Deus

Armandinho

Tom: A
(intro 2x) A7+/9  D7+/9

A
Quando Deus te desenhou
  D
Ele tava namorando
A
Quando Deus te desenhou
  D
Ele tava namorando
           C#m
Na beira do mar
             Bm
Na beira do mar do amor!
           C#m
Na beira do mar
            Bm           E
Na beira do mar do amor!

A
Papai do céu na hora de fazer você
  D
Ele deve ter caprichado pra valer
A
Botou muita pureza no seu coração
  D
E a sua humildade fez chamar minha atenção
A
Tirou a sua voz do própolis e mel
  D
E o teu sorriso lindo de algum lugar do céu
A
O resto deve ser beleza exterior
  D
Mas o que tem por dentro para mim tem mais valor

(refrão)
 A
Quando Deus te desenhou
  D
Ele tava namorando
A
Quando Deus te desenhou
  D
Ele tava namorando
           C#m
Na beira do mar
             Bm
Na beira do mar do amor!
           C#m
Na beira do mar
            Bm         E
Na beira do mar do amor!

A
Papai do céu na hora de fazer você
  D
Ele deve ter caprichado pra valer
A
Botou muita pureza no seu coração
  D
E a sua humildade fez chamar minha atenção
A
Da estrela mais bonita o brilho desse olhar
  D
Diamante verdadeiro sua palavra foi buscar
A
O resto deve ser beleza exterior
  D
Mas o que tem por dentro para mim tem mais valor

(solo)
         ( A D)
E |---5-4------------------------------------------------------------
B |------------5-7-5-----------5-------------------------------------
G |--------6-7-----------4^h2------2-2-----2-------------------------
D |-------------------------------------p4---------------------------
A |------------------------------------------------------------------
E |------------------------------------------------------------------

E |------------------------------------2-555-5--2-0-----------------
B |--------------------------------2-5---------------3-2-0h2-0------
G |----------------------------2-4------------------------------2---
D |----4p2-----------------2-4--------------------------------------
A |---------p4p2p0-0-0-2-4------------------------------------------
E |-----------------------------------------------------------------

E |----4h5---4h5----4/5---4/5---------------------------------------
B |--5-----5------7-----7-------------------------------------------
G |--4------------6-------------------------------------------------
D |-----------------------------------------------------------------
A |-----------------------------------------------------------------
E |-----------------------------------------------------------------

Clipes

Cifra Club Pro

Aproveite o Cifra Club com benefícios exclusivos e sem anúncios
Cifra Club Pro
Aproveite o Cifra Club com benefícios exclusivos e sem anúncios