busca

Desenho de Deus

Armandinho

E--5-5-7--------/---------------------------------------------------------------
A-------4-7----/-------------7-------------------------------------------------
D-----------7-/-7--------4------4------------------------------------------------
G------------/---------------------------------------------------------------

E----------------/---------------------------------------------------------
A-5-5-7--------/----------------------------------------------------------
D-------4-7----/--------7--------------------------------------------------
G-----------7-/--7--4------4------------------------------------------------

E----4---------/---4---------/--2--------/--2-------------------------------
A--4---4-4-4--/-4----4-4-4--/-2--2-2-2--/-2---2-2-2-----------------------
D------------/-------------/-----------/------------------------------------
G-----------/-------------/-----------/-------------------------------------

Clipes

Cifra Club Pro

Aproveite o Cifra Club com benefícios exclusivos e sem anúncios
Cifra Club Pro
Aproveite o Cifra Club com benefícios exclusivos e sem anúncios