busca

Mãe Natureza

Armandinho

Tom: E
Intro:   E  A7+  E  A7+

Violão:
e|-9\7--7\5--5/7--------9\7--7\5----|
B|----------------7---------------5-| 
G|-6\4--4\2--2/4--------6\4--4\2----| 
D|----------------4---------------2-| 
a|----------------------------------|
e|----------------------------------|

Guitarra:
e|--------------------------------------------|
b|-14\12--12\10--10/12--------14\12--12\10----|
g|----------------------11------------------9-|
d|-11\9---9\7----7/9----------11\9---9\7------|
a|----------------------9-------------------7-|
e|--------------------------------------------|

   E    F#m E   F#m E
Ó mãe, ó mãe natureza, ela tem a beleza
F#m E F#m
 que a mãe natureza criou,
   E    F#m        E   F#m          E
Ó mãe, ó mãe natureza, ela tem a pureza
F#m E
 que todo moleque sonhou
C#m                    G#m               G#m Gm F#m
Ai meu deus, olha a beleza daquela menina, 
F#m B7   E
Dançando descalça na areia ela nem imagina
C#m
Que o tempo parou, 
           G#m                    G#m Gm F#m
Naquele instante meu peito apertou
       F#m B7 E A7M      E      A7M
E o meu coração que era pedra nasceu uma flor
  E    F#m E   F#m E
Ó mãe, ó mãe natureza, ela tem a beleza
F#m E F#m
 que a mãe natureza criou,
   E    F#m        E   F#m          E
Ó mãe, ó mãe natureza, ela tem a pureza
F#m E
 que todo moleque sonhou
C#m               G#m                    G#m Gm F#m
Ai "dusmeu” ela gosta de praia que nem eu,
F#m B7 E
 cuida dos bixinhos, vai ser mãe de um filho meu
C#m              G#m             G#m Gm F#m
Ai ioio deus abençoe o nosso amor,
     F#m B7 E C#m
 o meu coração que era pedra nasceu uma flor,
A Am E C#m
 o meu coração que era pedra nasceu uma flor.
A Am E
Quando eu menos esperava encontrei meu amor

Clipes