busca

O Justiceiro

Armandinho

Tom: A
(intro) E E E F#m A

A          F#m
Nanananananana
 Bm        E
Nanananananana    (2x)

A                  F#m
Eu sou desafinado sim senhor
Bm                              E
Mas não tem problema, pois eu toco por amor
      A             F#m
Não tenho namorada, ainda não
     Bm                     E
Por isso todo dia nasce um pelo na minha mão
   A                     F#m
Cantando no banheiro eu sou feliz
    Bm                          E
Só saio lá de dentro com uma espinha no nariz
   A                 F#m
A mãe bate na porta Antonio Armando,
         Bm                   E
O que é que você fez que essa menina ta chorando?

(refrão 2x)
  A             Bm                      A
Ô Pai na minha idade você também era assim
         Bm                   A
A minha tia cagueto você pra mim
         Bm                      A
Então relaxa que o teu filho ta norma
( E F#m A )

E|-----------------------------------------------------------------|
B|----------------------10-7--------------7-7---10-9-10-12-10-7----|
G|-------------6-9-11-------9~---9/11-9-9-----------------------9--|
D|--------7h9------------------------------------------------------|
A|---7h9-----------------------------------------------------------|
E|-----------------------------------------------------------------|

E|----------------------------------------9-12-9~----8/9~----------|
B|-10-7------------------7-9-----10/12-10---------10---------------|
G|------9-6-----------7/9----9~------------------------------------|
D|----------7-------7----------------------------------------------|
A|------------9/7/9------------------------------------------------|
E|-----------------------------------------------------------------|

E|--12-------------------------------------------------------------|
B|12--12-10-10----10------10-7--------------------------------10-9-|
G|-------------11----11-9-------9-6----7--7--7--7--9--9--9--9-11-9-|
D|---------------------------------7--7--7--7--7--9--9--9--9-------|
A|-----------------------------------------------------------------|
E|-----------------------------------------------------------------|

( A    F#m    Bm    E )
Enquanto isso na sala de justiça...Antônio Armando

   A                 F#m
A mãe bate na porta Antonio Armando,
         Bm                   E
O que é que você fez que a empregada  ta chorando?

  A             Bm                      A
Ô Pai na minha idade você também era assim
         Bm                   A
A minha tia cagueto você pra mim
         Bm                      A
Então relaxa que o teu filho ta normal (2x)

Clipes