busca

Paulinha

Armandinho

Tom: F
F              Gm         C          F
Eu conheci Paulinha numa noite de verão
                  Gm         C         F
E o bumbo do meu reggae fez tumtum no coração
            Bb                     F
Covinha no sorriso uma menina uma mulher
                 Gm           C              F
Na flor da margarida foi brincar de bem me quer

    Am                 Dm
Ai ai ! Paulinha me encantou
          Gm          C           F
Vem cá comigo pra provar do meu amor
    Am                    Dm
Ai ai ! Paulinha me encantou
          Gm          C           F
Vem cá comigo pra provar do meu amor

                 Bb                    F
Será que ela me bem, será que mal me quer
             Gm      C         F
Depois dos quinze menina virá mulher

               Gm         C        F
Eu conheci paulinha numa noite de verão
                Gm        C           F
E o toque da zabumba fez tumtum no coração,
            Bb                     F
Covinha no sorriso uma menina uma mulher
                 Gm           C              F
Na flor da margarida foi brincar de bem me quer

    Am                    Dm
Ai ai ! Paulinha me encantou
          Gm          C           F
Vem cá comigo pra provar do meu amor
    Am                    Dm
Ai ai ! Paulinha me encantou
          Gm          C           F
Vem cá comigo pra provar do meu amor

                 Bb                    F
Será que ela me bem, será que mal me quer
             Gm      C         F
Depois dos quinze menina virá mulher

[Solo]

E|-----------------6--5--5/6\5---8--6--5----5---------|
B|--------5--6--8------------------------8----8--6----|
G|--5--7-------------------------------------------7--|
D|----------------------------------------------------|
A|----------------------------------------------------|
E|----------------------------------------------------|

E|--------5--6--5-----5-------------------------------|
B|--6--8-----------8-----8--6-----6--8--6/8\6-----6---|
G|-----------------------------7---------------7------|
D|----------------------------------------------------|
A|----------------------------------------------------|
E|----------------------------------------------------|

E|---------------------------------5--6--5--8--6--5---|
B|--------------6--8--8--6--8--6----------------------|
G|--------5--7----------------------------------------|
D|--7--8----------------------------------------------|
A|----------------------------------------------------|
E|----------------------------------------------------|

E|----------------------------------------------------|
B|--8--8--6--8--6~~-----------------------------------|
G|----------------------------------------------------|
D|----------------------------------------------------|
A|----------------------------------------------------|
E|----------------------------------------------------|

               Gm         C          F
Eu conheci Paulinha numa noite de verão
                  Gm         C             F
E o bumbo do meu reggae fez tumtum no coração
            Bb                     F
Covinha no sorriso uma menina uma mulher
                 Gm           C              F
Na flor da margarida foi brincar de bem me quer

    Am                    Dm
Ai ai ! Paulinha me encantou
          Gm          C           F
Vem cá comigo pra provar do meu amor
    Am                    Dm
Ai ai ! Paulinha me encantou
          Gm          C           F
Vem cá comigo pra provar do meu amor

                 Bb                    F
Será que ela me bem, será que mal me quer
             Gm        C          F
Depois dos quinze menina virá mulher
             Gm        C          F
Depois dos quinze menina virá mulher        
             Gm       C                F
Depois dos quinze só não vira se não quer

Clipes

Cifra Club Pro

Aproveite o Cifra Club com benefícios exclusivos e sem anúncios
7 dias grátis
Cifra Club Pro
Aproveite o Cifra Club com benefícios exclusivos e sem anúncios
7 dias grátis