busca

Semente

Armandinho

Ah música fica só nisso: A,E,F#,D...
refrão:

  G|--------------------------------------------------------------------------|
  D|--------------------------------------------------------------------------|
  A|----4-4-----4---7-7-5/7--7-5/7-5--9-9--7/9-7/9--7/9-7--5-5--4/5-4/5--4/5-4|    
  E|5-5-----5-5---5-----------------------------------------------------------|
   
versos:

  G|--------------------------------------------------------|
  D|--------4-------------4--------------4-2-4--------------|
  A|----4-5---5-4-77--4-5---7-5--99--4-5-------55--4/55-4/55|
  E|55------------------------------------------------------|

Na parte do solo,o baixo repete o refrão.

Clipes