busca

A Lua Me Traiu

Banda Calypso

Tom: G
[Introdução] G
             Em7  Am7   Em7   Am7
             C  D  Em7 

E|-----------------------------------------------------|
B|---8p7---8---7---------------------------------------|
G|-------9-------9-7---5-4-5/7---5p4-5~----------------|
D|-9---------------------------------------------------|
A|-----------------------------------------------------|
E|-----------------------------------------------------|

E|-----------------------------------------------------|
B|-----------------------------------------------------|
G|-------/9--7--5--5-7-4~------------------------------|
D|-----x-----------------------------------------------|
A|---x-------------------------------------------------|
E|-x---------------------------------------------------|

E|-----------------------------------------------------|
B|----8p7---8---7--------------------------------------|
G|--------9-------9-7---5-4-5/7---5-4-5~---------------|
D|-/9--------------------------------------------------|
A|-----------------------------------------------------|
E|-----------------------------------------------------|

E|-----------------------------------------------------|
B|-----------------------------------------------------|
G|-------/9--7--5--5-7-5~------------------------------|
D|-----x-----------------------------------------------|
A|---x-------------------------------------------------|
E|-x---------------------------------------------------|

E|-----------------------------------------------------|
B|--------5------------8p7---8--7--7h8---7h8p7---8-----|
G|----5-7---7~---------------------------------9-------|
D|-/5----------------9---------------------------------|
A|-----------------------------------------------------|
E|-----------------------------------------------------|

E|-----------------------------------------------------|
B|-7h8p7-----------------------------------------------|
G|-------9-7~------------------------------------------|
D|-----------------------------------------------------|
A|-----------------------------------------------------|
E|-----------------------------------------------------|


[Primeira Parte]

         D           C    
Parece até conto de fadas
                    G
Mas assim aconteceu
        D          C
Éramos dois apaixonados
                G
Julieta e Romeu
         D          C 
Naquela noite encantada
                   G
Pedi pra lua dos amantes
          D          C
Que iluminasse essa hora


[Segunda Parte]

                     Am
Pra esse amor eternizar
                  D
Mas num passe de mágica
              Bm
Você desapareceu
               E
Um eclipse maldito
                 Am
O encanto se perdeu
                    D 
E o meu coração partido
     D#º               Em
Foi sofrendo e foi sofrendo
                      D
Tentando te encontrar

Na madrugada
  A   
Fria madrugada


(Riff de Passagem)

E|------10~---------14~---------15~--------------------|
B|-----------------------------------------------------|
G|-9/11-------11/14-------14/16------------------------|
D|-----------------------------------------------------|
A|-----------------------------------------------------|
E|-----------------------------------------------------|


[Refrão]

G                D
  A lua me traiu
   A          C             G
Acreditei que era pra valer
               D
A lua me traiu
    A  
Fiquei sozinha
   C           G
E louca por você

               D
A lua me traiu
   A          C             G
Acreditei que era pra valer
               D
A lua me traiu
    A  
Fiquei sozinha
   C           Em7
E louca por você
 
      D       C
Ah Ah   Ah Ah
                     G
Não consigo te esquecer
      D       C
Ah Ah   Ah Ah
                  G
Apaixonada por você

      D       C
Ah Ah   Ah Ah
                     G
Não consigo te esquecer
      D       C
Ah Ah   Ah Ah
                  
Apaixonada por você


[Interlúdio] Em7  Am7   Em7   Am7
             C  D  Em7


[Terceira Parte]

         D          C 
Naquela noite encantada
                   G
Pedi pra lua dos amantes
          D          C
Que iluminasse essa hora


[Quarta Parte]

                     Am
Pra esse amor eternizar
                  D
Mas num passe de mágica
              Bm
Você desapareceu
               E
Um eclipse maldito
                 Am
O encanto se perdeu
                    D 
E o meu coração partido
     D#º               Em
Foi sofrendo e foi sofrendo
                      D
Tentando te encontrar

Na madrugada
  A   
Fria madrugada



[Refrão]

G                D
  A lua me traiu
   A          C             G
Acreditei que era pra valer
               D
A lua me traiu
    A  
Fiquei sozinha
   C           G
E louca por você

               D
A lua me traiu
   A          C             G
Acreditei que era pra valer
               D
A lua me traiu
    A  
Fiquei sozinha
   C           Em7
E louca por você
 
      D       C
Ah Ah   Ah Ah
                     G
Não consigo te esquecer
      D       C
Ah Ah   Ah Ah
                  G
Apaixonada por você

      D       C
Ah Ah   Ah Ah
                     G
Não consigo te esquecer
      D       C
Ah Ah   Ah Ah
                  G
Apaixonada por você


(Final)

E|-------15--------------------------------------------|
B|-----------------------------------------------------|
G|-14/16-----------------------------------------------|
D|-----------------------------------------------------|
A|-----------------------------------------------------|
E|-----------------------------------------------------|

Clipes

Cifra Club Pro

Aproveite o Cifra Club com benefícios exclusivos e sem anúncios
Cifra Club Pro
Aproveite o Cifra Club com benefícios exclusivos e sem anúncios