A Lua Me Traiu

Banda Calypso

Principal
A
123
X02220
Am
1234
XX79108
Am7
3
575555
Bm
34
799777
C
123
X32010
D
123
XX0232
D#º
1234
XX1212
E
123
022100
Em
12
022000
Em7
123
022030
G
234
X109787
Tom: G
[Introdução] G
             Em7  Am7   Em7   Am7
             C  D  Em7 

#1t1##1t2#E|-----------------------------------------------------|
B|---8p7---8---7---------------------------------------|
G|-------9-------9-7---5-4-5/7---5p4-5~----------------|
D|-9---------------------------------------------------|
A|-----------------------------------------------------|
E|-----------------------------------------------------|#/1t2##/1t1#

#2t1##2t2#E|-----------------------------------------------------|
B|-----------------------------------------------------|
G|-------/9--7--5--5-7-4~------------------------------|
D|-----x-----------------------------------------------|
A|---x-------------------------------------------------|
E|-x---------------------------------------------------|#/2t2##/2t1#

#3t1##3t2#E|-----------------------------------------------------|
B|----8p7---8---7--------------------------------------|
G|--------9-------9-7---5-4-5/7---5-4-5~---------------|
D|-/9--------------------------------------------------|
A|-----------------------------------------------------|
E|-----------------------------------------------------|#/3t2##/3t1#

#4t1##4t2#E|-----------------------------------------------------|
B|-----------------------------------------------------|
G|-------/9--7--5--5-7-5~------------------------------|
D|-----x-----------------------------------------------|
A|---x-------------------------------------------------|
E|-x---------------------------------------------------|#/4t2##/4t1#

#5t1##5t2#E|-----------------------------------------------------|
B|--------5------------8p7---8--7--7h8---7h8p7---8-----|
G|----5-7---7~---------------------------------9-------|
D|-/5----------------9---------------------------------|
A|-----------------------------------------------------|
E|-----------------------------------------------------|#/5t2##/5t1#

#6t1##6t2#E|-----------------------------------------------------|
B|-7h8p7-----------------------------------------------|
G|-------9-7~------------------------------------------|
D|-----------------------------------------------------|
A|-----------------------------------------------------|
E|-----------------------------------------------------|#/6t2##/6t1#


[Primeira Parte]

         D           C    
Parece até conto de fadas
                    G
Mas assim aconteceu
        D          C
Éramos dois apaixonados
                G
Julieta e Romeu
         D          C 
Naquela noite encantada
                   G
Pedi pra lua dos amantes
          D          C
Que iluminasse essa hora


[Segunda Parte]

                     Am
Pra esse amor eternizar
                  D
Mas num passe de mágica
              Bm
Você desapareceu
               E
Um eclipse maldito
                 Am
O encanto se perdeu
                    D 
E o meu coração partido
     D#º               Em
Foi sofrendo e foi sofrendo
                      D
Tentando te encontrar

Na madrugada
  A   
Fria madrugada


(Riff de Passagem)

#7t1##7t2#E|------10~---------14~---------15~--------------------|
B|-----------------------------------------------------|
G|-9/11-------11/14-------14/16------------------------|
D|-----------------------------------------------------|
A|-----------------------------------------------------|
E|-----------------------------------------------------|#/7t2##/7t1#


[Refrão]

G                D
  A lua me traiu
   A          C             G
Acreditei que era pra valer
               D
A lua me traiu
    A  
Fiquei sozinha
   C           G
E louca por você

               D
A lua me traiu
   A          C             G
Acreditei que era pra valer
               D
A lua me traiu
    A  
Fiquei sozinha
   C           Em7
E louca por você
 
      D       C
Ah Ah   Ah Ah
                     G
Não consigo te esquecer
      D       C
Ah Ah   Ah Ah
                  G
Apaixonada por você

      D       C
Ah Ah   Ah Ah
                     G
Não consigo te esquecer
      D       C
Ah Ah   Ah Ah
                  
Apaixonada por você


[Interlúdio] Em7  Am7   Em7   Am7
             C  D  Em7


[Terceira Parte]

         D          C 
Naquela noite encantada
                   G
Pedi pra lua dos amantes
          D          C
Que iluminasse essa hora


[Quarta Parte]

                     Am
Pra esse amor eternizar
                  D
Mas num passe de mágica
              Bm
Você desapareceu
               E
Um eclipse maldito
                 Am
O encanto se perdeu
                    D 
E o meu coração partido
     D#º               Em
Foi sofrendo e foi sofrendo
                      D
Tentando te encontrar

Na madrugada
  A   
Fria madrugada



[Refrão]

G                D
  A lua me traiu
   A          C             G
Acreditei que era pra valer
               D
A lua me traiu
    A  
Fiquei sozinha
   C           G
E louca por você

               D
A lua me traiu
   A          C             G
Acreditei que era pra valer
               D
A lua me traiu
    A  
Fiquei sozinha
   C           Em7
E louca por você
 
      D       C
Ah Ah   Ah Ah
                     G
Não consigo te esquecer
      D       C
Ah Ah   Ah Ah
                  G
Apaixonada por você

      D       C
Ah Ah   Ah Ah
                     G
Não consigo te esquecer
      D       C
Ah Ah   Ah Ah
                  G
Apaixonada por você


(Final)

#8t1##8t2#E|-------15--------------------------------------------|
B|-----------------------------------------------------|
G|-14/16-----------------------------------------------|
D|-----------------------------------------------------|
A|-----------------------------------------------------|
E|-----------------------------------------------------|#/8t2##/8t1#
Composição: Ado Benatti / Antonio José / Claudio Costa / Jeca Mineiro / José Fernandes / Michael Sullivan / Paulo Leandro / Paulo Massadas / Sebastião Ferreira da Silva / Vicente Dias Da CostaColaboração e revisão: Vinícius Dias
Videoaula A LUA ME TRAIU (aula de guitarra)