busca

Every Christian Lion Hearted Man Will Show You

Bee Gees

Tom: G
E|----------------|
B|----------------|
G|----------------|
D|----------------|
A|--------3---2---|
E|----------------|
   Am
E|----------------|----------------|----------------|----------------|
B|----------------|----------------|----------------|----------------|
G|2---------------|----------------|2---------------|----------------|
D|2---------------|----------------|2---------------|--------2---0---|
A|0---------------|--------3---2---|0---------------|----------------|
E|----------------|----------------|----------------|----------------|
    Oh solo Dominique                   Oh solo Dominique
    C                                 Am
E|----------------|----------------|----------------|----------------|
B|----------------|----------------|----------------|----------------|
G|5---------------|----------------|2---------------|----------------|
D|5---------------|----------------|2---------------|----------------|
A|3---------------|--------3---2---|0---------------|----------------|
E|----------------|----------------|----------------|----------------|
    Oh solo Dominique                  Oh solo Dominique

E|----------------|
B|----------------|
G|----------------|
D|----------------|
A|--------3---2---|
E|----------------|
   Am
E|----------------|----------------|----------------|----------------|
B|----------------|----------------|----------------|----------------|
G|2---------------|----------------|2---------------|----------------|
D|2---------------|----------------|2---------------|------------0---|
A|0---------------|--------3---2---|0---------------|--------3---2---|
E|----------------|----------------|----------------|----------------|
    Oh solo Dominique                   Oh solo Dominique
   Am
E|----------------|----------------|
B|----------------|----------------|
G|2---------------|----------------|
D|2---------------|----------------|
A|0---------------|----------------|
E|----------------|----------------|

E|----------------|
B|----------------|
G|----------------|
D|----------------|
A|--------3---2---|
E|----------------|
   Am
E|----------------|----------------|----------------|----------------|
B|----------------|----------------|----------------|----------------|
G|2---------------|----------------|2---------------|----------------|
D|2---------------|----------------|2---------------|--------2---0---|
A|0---------------|--------3---2---|0---------------|----------------|
E|----------------|----------------|----------------|----------------|
    Oh solo Dominique                   Oh solo Dominique
    C                                 Am
E|----------------|----------------|----------------|----------------|
B|----------------|----------------|----------------|----------------|
G|5---------------|----------------|2---------------|----------------|
D|5---------------|------------0---|2---------------|----------------|
A|3---------------|--------3---2---|0---------------|----------------|
E|----------------|----------------|----------------|----------------|
    Oh solo Dominique               (tacet)

E|----------------|
B|----------------|
G|----------------|
D|----------------|
A|--------3---2---|
E|----------------|
   Am
E|----------------|----------------|----------------|----------------|
B|----------------|----------------|----------------|----------------|
G|2---------------|----------------|2---------------|----------------|
D|2---------------|----------------|2---------------|------------0---|
A|0---------------|--------3---2---|0---------------|--------3---2---|
E|----------------|----------------|----------------|----------------|
    Oh solo Dominique                   Oh solo Dominique
   Am
E|----------------|----------------|----------------|----------------|
B|----------------|--------1---0---|----------------|----------------|
G|2---------------|----------------|2---------------|----------------|
D|2---------------|----------------|2---------------|------------0---|
A|0---------------|----------------|0---------------|--------3---2---|
E|----------------|----------------|----------------|----------------|
    Oh solo Dominique
    Am              G                Am
E|----------------|----------------|----------------|----------------|
B|----------------|----------------|----------------|-----DRUM-------|
G|2---------------|0---------------|2---------------|-----OUTRO------|
D|2---------------|0---------------|2---------------|-----AND--------|
A|0---------------|x---------------|0---------------|-----FADE-------|
E|----------------|3---------------|----------------|----------------|

Am
  Oh solo Dominique
Am
  Oh solo Dominique
C
  Oh solo Dominique
Am
  Oh solo Dominique

A
  Take this in hand
A
  Said he who stands
  G
Behind the chair
         D
A broken table there

A               *D            A
Every Christian lion hearted man will show you
A               *D            A
Every Christian lion hearted man will show you

Am
  Oh solo Dominique
Am
  Oh solo Dominique
Am
   (tacet)

A
  Don't walk so tall
A
  Before you crawl
    G
For every child
               D
Is thinking of something wild

A               D            A
Every Christian lion hearted man will show you
A               D            A
Every Christian lion hearted man will show you

Am
   Oh solo Dominique
Am
  Oh solo Dominique
C
  Oh solo Dominique
Am

A               *D            A
Every Christian lion hearted man will show you
A               *D            A
Every Christian lion hearted man will show you (will show you)

Am
  Oh solo Dominique
Am
  Oh solo Dominique
Am
  Oh solo Dominique

( Am  G  Am )

Clipes

Cifra Club Pro

Aproveite o Cifra Club com benefícios exclusivos e sem anúncios
Cifra Club Pro
Aproveite o Cifra Club com benefícios exclusivos e sem anúncios