busca

Heart Like Mine

Bee Gees

Tom: G
G           C
Night grows cold,
G                D
I've been lonely so much
G       C
out of reach,
G            D
save it only for me

G                     D
Nothing in life is the same
         Am               C
and the sooner we stop to start

              G    D     C
and there's a heart like mine
G                D
somewhere in this world
          G     D    C
there's a heart like mine
G                  D
beating but left to burn

              G               C
Maybe you can hide your face forever
               D
God Knows it's true
              G          C
that when you search for someone

         C      G    D
there's a heart like mine
          C          D
there's a heart like mine,
      G
to be heard

E|---------------------------------------------|
B|---------------------------------------------|
G|---------------------------------------------|
D|11-9-11-9-11-9-11-9-11-9---------------------|
A|-------------------------9--11-11-12-11-9----|
E|---------------------------------------------|

E|---------------------------------------------|
B|---------------------------------------------|
G|---------------------------------------------|
D|11-9-11-9-11-9-11-9-11-9---------------------|
A|-------------------------9-------------------|
E|---------------------------------------------|

G        C
Souls on fire
G                     D
feel her voice in your ear
G        C
she goes on
G              D
living only for me

G                        D
nothing you say could be wrong
           Am                 C
'cause you give me the lovers sign

              G    D     C
and there's a heart like mine
G                D
somewhere in this world
          G     D    C
there's a heart like mine
G                  D
beating but left to burn

              G               C
Maybe we can share it all forever
               D
but not til we do
          G          C
I'm gonna search for someone

          D     C    G
there's a heart like mine
          D          C
there's a heart like mine,
      G
to be heard

E|---------------------------------------------|
B|---------------------------------------------|
G|---------------------------------------------|
D|11-9-11-9-11-9-11-9-11-9---------------------|
A|-------------------------9--11-11-12-11-9----|
E|---------------------------------------------|

E|---------------------------------------------|
B|---------------------------------------------|
G|---------------------------------------------|
D|11-9-11-9-11-9-11-9-11-9---------------------|
A|-------------------------9-------------------|
E|---------------------------------------------|

               G            C
and baby are we waking up together
                     D
'cause God knows it's you
            G        C
if there is love for someone

              G    D     C
and there's a heart like mine
G                D
somewhere in this world
          G     D    C
there's a heart like mine
G                  D
beating but left to burn

              G               C
Maybe we can share it all forever
               D
but not til we do
          G          C
I'm gonna search for someone

          D      C   G
there's a heart like mine
          D         C
there's a heart like mine,
      G
to be heard

E|---------------------------------------------|
B|---------------------------------------------|
G|---------------------------------------------|
D|11-9-11-9-11-9-11-9-11-9---------------------|
A|-------------------------9--11-11-12-11-9----|
E|---------------------------------------------|

E|---------------------------------------------|
B|---------------------------------------------|
G|---------------------------------------------|
D|11-9-11-9-11-9-11-9-11-9---------------------|
A|-------------------------9-------------------|
E|---------------------------------------------|

          D      C   G
there's a heart like mine
          D         C
there's a heart like mine,

Clipes

Cifra Club Pro

Aproveite o Cifra Club com benefícios exclusivos e sem anúncios
7 dias grátis
Cifra Club Pro
Aproveite o Cifra Club com benefícios exclusivos e sem anúncios
7 dias grátis