busca

New York Mining Disaster

Bee Gees

NEW YORK MINING DISASTER 1941

Album: ONE NIGHT ONLY (LIVE)

BASS TAB BY MEELIS SAARD (*)There is no bass on first verse

Chorus (have you seen my wife mr. Jones?)
E |-------------------------------------------------|
H |------1---------------1---6--6--6--6--5--5-6\----|
F#|-1--1----1--1-1--1--1-------------------------3--|
C#|-------------------------------------------------|


Verse 1 (I keep...)
E |---6----------------------------------------------|
H |------------------3--------------1-3--------------|
F#|-3------3----3---------1----3-----------1--3-1----|
C#|-----------------------------------------------4--|

Chorus

Verse 2
E |---6----6----6-----------------------|
H |------------------3-------------1-3--|
F#|-3---------------------1----3--------|
C#|-------------------------------------|

Chorus

Thanx

Clipes

Cifra Club Pro

Aproveite o Cifra Club com benefícios exclusivos e sem anúncios
Cifra Club Pro
Aproveite o Cifra Club com benefícios exclusivos e sem anúncios