busca

Reaching Out

Bee Gees

Tom: C
Álbum: Spirits Having Flown (1979)

Intro:

     Gm         Gm9        Gm         Gm7        Gm         Gm9
e|----------6----------5----------3----------1----------6----------5----
B|--------3----------3----------3----------3----------3----------3------
G|------3----------3----------3----------3----------3----------3--------
D|----------------------------------------------------------------------
A|----------------------------------------------------------------------
E|---3----------3----------3----------3----------3----------3-----------


 G                    Bm7  Em7                     Bm7
Watching every day go by,      living in a foolish game 
                       C
Just the way I feel today 
                   Bm7     C/D
Living my life without you 
 G                   Bm7  Em7                 Bm7
Never hear a single word,     living in a lullaby 
                       C
Praying every tear I cry 
                   Bm7     C/D
Living my life without you 
                            Am7                         D
And everywhere you go I fly (I love you with a special feeling) 
                                Am7                 D
And darling 'til the day I die (baby never stop believing)
         C7+                                   Bm7
I'll be reaching out, I'll be reaching out, Ah... 
 C7+
Reaching out (there's a woman going through me)
                                                         Bm7
I'll be reaching out (got a chance to hold you to me) Ah...
                                    
Everything is lonely and I need you 
Am7              C/D
Living my life forever...


     Gm         Gm9        Gm         Gm7        Gm         Gm9
e|----------6----------5----------3----------1----------6----------5----
B|--------3----------3----------3----------3----------3----------3------
G|------3----------3----------3----------3----------3----------3--------
D|----------------------------------------------------------------------
A|----------------------------------------------------------------------
E|---3----------3----------3----------3----------3----------3-----------
 Forever 


 G                    Bm7
Watching every day go by 
Em7                      Bm7
    Living on the one I love
                    C 
What I got is not enough
                   Bm7     C/D 
Living my life without you 

                            Am7                   D
And I believe in yesterday (yesterday was once tomorrow) 
                                          Am7                      D
With love, with love wide open every way (baby you're the light I follow) 
         C7+                                   Bm7
I'll be reaching out, I'll be reaching out, Ah... 
 C7+
Reaching out (there's a woman going through me)
                                                         Bm7
I'll be reaching out (got a chance to hold you to me) Ah...
                                    
Everything is lonely and I need you 
Am7              C/D
Living my life forever...

         Eb7+                                  Dm7
I'll be reaching out, I'll be reaching out, Ah...
 Eb7+                                  Dm7
Reaching out, I'll be reaching out, Ah... 
Cm7              Eb/F
Living my life forever 
 Eb7+                                  Dm7
Reaching out, I'll be reaching out, ah... 
 Eb7+                                  Dm7
Reaching out, I'll be reaching out, ah... 

[fading out] 
 Eb7+                                  Dm7
Reaching out, I'll be reaching out, ah...
 Eb7+
Reaching out...

Clipes