This Is Where I Came In

Bee Gees

Tom: G
TABBED BY: Martin Kelly


ACOUSTIC GUITAR INTRO + VERSES [Two guitars left + Right]

#1t1##1t2#E----------]------------------------------------------------------------------------------
B----------]-----------------------1------------------------------------------------------
G----------]------------2--------0--------------------------------------------------------
D----------]-0'2'0----2---2----2---------2-0'2--------------------------------------------
A----------]--------0--------3------------------------------------------------------------
E--0-3-2-0-]-------------------------0----------------------------------------------------#/1t2##/1t1#

*

        After three repeats in verses, you play this three times

#2t1##2t2#E--0-------0---------0--------0-----------------------------------------------------------
B--0-------2---------1--------0-----------------------------------------------------------
G--0-------2---------0--------0-----------------------------------------------------------
D--2-------2---------2--------2-----------------------------------------------------------
A--2-------0---------3--------2-----------------------------------------------------------
E--0-----------------0--------0-----------------------------------------------------------#/2t2##/2t1#

*

1. To this
                repeat twice
#3t1##3t2#E--0-------0------------------0--------0--------------------------------------------------
B--0-------2------------------1--------0--------------------------------------------------
G--0-------2------------------0--------0--------------------------------------------------
D--2-------2------------------2--------2--------------------------------------------------
A--2-------0------------------3--------2--------------------------------------------------
E--0--------------------------0--------0--------------------------------------------------#/3t2##/3t1#

PRE-CHORUS [Hope Rides On]

#4t1#Acoustic                                                Repeat once
#4t2#E--3-------------2-----------0---------0---------0----------------------------------------
B--0-------------3-----------0---------0---------1----------------------------------------
G--0-------------2-----------0---------0---------2----------------------------------------
D--0-------------0-----------2---------2---------2----------------------------------------
A--2-------------------------2---------2---------0----------------------------------------
E--3-------------------------0---------0--------------------------------------------------
]#/4t2##/4t1#
#5t1#]Electric
#5t2#E--------------------------------------0--------------------------------------------------
B--------------------------------------0--------------------------------------------------
G--------0-------------0-----------0---0--------------------------------------------------
D------5-------------4-----------2-----2--------------------------------------------------
A----5-------------5-----------5-------2--------------------------------------------------
E--------------------------------------0--------------------------------------------------#/5t2##/5t1#

CHORUS [All guitars]
                                Repeat twice
#6t1##6t2#E--0--------0---------3-------0------------------------------------------------------------
B--0--------1---------0-------1------------------------------------------------------------
G--0--------0---------0-------2------------------------------------------------------------
D--2--------2---------0-------2------------------------------------------------------------
A--2--------3---------2-------0------------------------------------------------------------
E--0--------0---------3-------------------------------------------------------------------#/6t2##/6t1#

BRIDGE

#7t1#Acoustic                        Repeat twice
#7t2#E--0-----------0---------------------------------0----------------------------------------
B--0-----------2---------------------------------1----------------------------------------
G--0-----------2---------------------------------0----------------------------------------
D--2-----------2---------------------------------2----------------------------------------
A--2-----------0---------------------------------3----------------------------------------
E--0---------------------------------------------0----------------------------------------
]#/7t2##/7t1#
#8t1#]Electric [2nd + 3rd time only]
#8t2#E-----------------------------------------------------------------------------------------
B------------------15[17]-[17]------------------------------------------------------------
G-----------------------------------------------------------------------------------------
D-----------------------------------------------------------------------------------------
A-----------------------------------------------------------------------------------------
E-----------------------------------------------------------------------------------------#/8t2##/8t1#

ENDING [Electric]

#9t1##9t2#E-----------------------------------------------------------------------------------------
B------------------15[17]----------------15[17]---------------15[17]----------------------
G-----------------------------------------------------------------------------------------
D-----------------------------------------------------------------------------------------
A-----------------------------------------------------------------------------------------
E-----------------------------------------------------------------------------------------#/9t2##/9t1#

#10t1##10t2#E-----------------------------------------------------17[19]--17--15----------------------
B-----------------15[17]--------------15[17]---------------------------17-----------------
G-----------------------------------------------------------------------------------------
D-----------------------------------------------------------------------------------------
A-----------------------------------------------------------------------------------------
E-----------------------------------------------------------------------------------------#/10t2##/10t1#

#11t1##11t2#E-----------------------------------------------------------------------------------------
B----------15[17]------15[17]-------15[17]--15-12-10-------------------------------15[17]-
G-----------------------------------------------------12-11-9--9[11]--9-7-9---------------
D-----------------------------------------------------------------------------------------
A-----------------------------------------------------------------------------------------
E-----------------------------------------------------------------------------------------#/11t2##/11t1#

fades out.

Think that covers everything. For more tabs contact *
Composição: Colaboração e revisão: