busca

Flesh For Fantasy Intro

Billy Idol

Tom: G
Tabbed by Liam
Email: *

love his style! Just the intro cos im sure the other guys tab is all good apart from his 
and the PM riff.


Intro

(Bass and drums) (*)

(played with synthesizer effects)
E|-----------------------------------------------------------------|
B|-7~~-----7-------------------------------------------------------|
G|-7~~--------7----------------------------------------------------|
D|-7~~-----------7------7-999--9-7-9-7-9-----7-999--9-7-9-7-9------|
A|-7~~--------------7--------------------9--------------------9----|
E|-----------------------------------------------------------------|
PM                        *******************   *****************

E|----------------------------------------------------------------------|
B|-7~~------10----12-10/12v---------------------------------------------|
G|-7~~-------9----12--9/11v---------------------------------------------|
D|-7~~---------10------------7-999--9-7-9-7-9-----7-999--9-7-9-7-9------|
A|-7~~----------------------------------------9--------------------9----|
E|----------------------------------------------------------------------|
PM                             *******************   *****************

E|----------------------------------------------------------------------|
B|-7~~-------(synthesizer-----------------------------------------------|
G|-7~~----------effect)-------------------------------------------------|
D|-7~~-----------------------7-999--9-7-9-7-9-----7-999--9-7-9-7-9------|
A|-7~~----------------------------------------9--------------------9----|
E|----------------------------------------------------------------------|
PM                             *******************   *****************

Clipes