busca

Flesh for Fantasy

Billy Idol

Tom: C
Received: from * by * (*.4)
        with SMTP id ; Sun, 7 Mar 1993 18:36:41 -0800
Received: from * by * id ; Sun, 7 Mar 1993 18:36:37 -0800
Received: by * (*)
        id AA21351; Mon, 8 Mar 93 02:36:24 GMT
From: * (Steve Portigal)
Message-Id: 
To: *
Date: Sun, 7 Mar 93 21:36:23 EST
X-Mailer: ELM [version 2.3 PL11]

Xref: * *:5113 *:1184
Path: *!usc!*!uunet!*!*
.edu.au!monu6!escargot!*!s892011
From: *.OZ.AU (*)
Newsgroups: *,*
Date: 17 Jan 1993 12:18:19 GMT
Organization: RMIT Computer Centre
Lines: 114
Message-ID: 
NNTP-Posting-Host: *




============================== 

KEY:

w/   = push down whammy bar, strike note and release to proper pitch
 = 19th fret natural harmonics
/    = slide up

       _____________________Hit harmonics with volume down,
      |                     raise volume, depress whammy
      |                     then barre the fret and slide 
      |                     down the fretboard. 
      |
      v       D/E                                       ||                                    slides w/ whammy bar
E ---------------------------------------------------------------------------
B ---------------7---------------------------10\/(7)-/12--10/12--------------
G --------------7-----------------------------9\/(6)-/11---9/11--------------
D -7-9---------7-------------------------------------------------------------
A ------9\----9--------------------------------------------------------------
E ----------0----------------------------------------------------------------
  ______|
             Do you like good music ?                 Do you like to dance ?
                                                      (then play palm-muted 
                                                       riff as above) 

                                            F#min            Emaj
E ------------------------------------------9--9--9----------7-7-7---9--9--9-
B -------7----------------------------------10-10-10---------9-9-9---10-10-10
G ------7-----------------------------------11-11-11---------9-9-9---11-11-10
D -----7---------------------------------------------------------------------
A ----9----------------------------------------------------------------------
E --0------------------------------------------------------------------------
      
       Hangin' out for a body shop at night ain't it strange what we do to
       feel alright ?  (palm-muted riff yet again)  Yeah !  So
       when will you call ? I'm experienced... (see below)

E ------------------------------------------------------7-10----7-
B -------------------------------------------------7-10------10---
G -------------------------------------6-7-9---7-9----------------
D --7-9-9--7--9--7--9--7-9-----7-9---7-------9--------------------
A --------------------------9------9------------------------------
E ----------------------------------------------------------------

E --------------------------------------------------------------------------
B -------------------7------------------------------10----------------------
G -------------w/4------4---------------------w/7--------7------------------
D --------------------------------------------------------------------------
A --------------------------------------------------------------------------
E --------------------------------------------------------------------------

  Face to face,             and back to back,                you
  see and feel               my sex attack.                  Sing it !


Chorus:
                        Bmin     Amaj
g  E -------------------14-14-14-12----------14-14-14-12-------------------
u  B -------------------15-15-15-14----------15-15-15-14-------------------
i  G -------------------16-16-16-14----------16-16-16-14-------------------
t  D ----------------------------------------------------------------------
.  A ----------------------------------------------------------------------
1  E ----------------------------------------------------------------------

g  E ----------------------------------------------------------------------
u  B ----------------------------------------------------------------------
i  G ----------------------------------------------------------------------
t  D --7--9-9--7--9--7--9--7-9-7-- (repeat through the whole chorus) ------
.  A ----------------------------------------------------------------------
2  E ----------------------------------------------------------------------

                                   Flesh !!!           Flesh for fantasy.


Bridge:

  (w. disortion)      A5   B5
E -------------------------------------7-
B -------------------------------------7-
G ---------------------------------------  (play 3 times)
D --7/9--9-9-7/9--9-9-7/9--9-9--7/9--9---  
A --7/9--9-9-7/9--9-9-7/9--9-9--7/9--9---
E --5/9--7-7-5/7--7-7-5/7--7-7--5/9--7---


  E                G     E        D 
  Father loves his son.  Mothers, daughters too.

  E       G              E         D 
  It's an old old story, cries the new world too. 

  E        F#
  Flesh !  Flesh !  Flesh for fantasy...

---

* (Gary Chapman)
----------------------------    NOTE:  Stay tuned for
*           my new e-mail address.
---------------------------------------------------------------------------

Clipes

Cifra Club Pro

Aproveite o Cifra Club com benefícios exclusivos e sem anúncios
7 dias grátis
Cifra Club Pro
Aproveite o Cifra Club com benefícios exclusivos e sem anúncios
7 dias grátis