| / slide up / | \ slide down / | ~ vibrato / | + harmonic / | x Mute note" /> | / slide up / | \ slide down / | ~ vibrato / | + harmonic / | x Mute note">
busca

John Wayne Solo

Billy Idol

Tom: D
E |---------------------------------------------------------------------------|
B |---------------------------------------------------------------------------|
G |------13b---13br-11--13b--13--11-----------13b--13br11~--------------------|
D |---------------------------------13--11------------------------------------|
A |---------------------------------------------------------------------------|
E |---------------------------------------------------------------------------|

E |---------------------------------------------------------------------------|
B |---------------------------------------------------------------------------|
G |--11-h-13--13b--13br11-----11-h-13--11-h-13~~~-----------------------------|
D |-----------------------13--------------------------------------------------|
A |---------------------------------------------------------------------------|
E |---------------------------------------------------------------------------|

E |--------------------------------------------|-------------------14---------|
B |--------------------------------------------|----------11-14-14------------|
G |-----------------------------11-h-13~-------|-11-13-11---------------------|
D |--------------------11-h-13-----------------|------------------------------|
A |-----------11-h-13--------------------------|------------------------------|
E |---/11--14----------------------------------|------------------------------|

E |-14-----11----14----11-|-14----14b-14-h-11--14b-14-h-11--14b-14-h-11-------|
B |----14-----------14----|----14---------------------------------------------|
G |-----------------------|---------------------------------------------------|
D |-----------------------|---------------------------------------------------|
A |-----------------------|---------------------------------------------------|
E |-----------------------|---------------------------------------------------|

E |-14b-14-h-11---|---14b-(14b)--14--11-----17b~~~~~~-------------------------|
B |---------------|-----------------------------------------------------------|
G |---------------|-----------------------------------------------------------|
D |---------------|-----------------------------------------------------------|
A |---------------|-----------------------------------------------------------|
E |---------------|-----------------------------------------------------------|

| /  slide up
| \  slide down
| h  hammer-on
| p  pull-off
| ~  vibrato
| +  harmonic
| x  Mute note
===============================================================================

Clipes