busca

To Be a Lover

Billy Idol

Tom: D
Riff A1
E |-|-----------------------------------------|x2
B |-|-----------------------------------------|
G |-|--5---5-5---5-5--332--332--5---5-5---5-5-|
D |-|--5---5-5---5-5--332--332--5---5-5---5-5-|
A |-|--5---5-5---5-5--332--332--3---3-3---3-3-|
E |-|-----------------------------------------|

Riff A2
E |-|----------------------------|x4
B |-|----------------------------|
G |-|--5---5-5---5-5--332--332---|
D |-|--5---5-5---5-5--332--332---|
A |-|--3---3-3---3-3--330--330---|
E |-|----------------------------|

Riff B
E |-|--------------------------------|x2
B |-|--------------------------------|
G |-|--10---10-10---10-10--887--887--|
D |-|--10---10-10---10-10--887--887--|
A |-|--8----8--8----8--8---665--665--|
E |-|--------------------------------|

Clipes