busca

White Wedding

Billy Idol

(Intro)
		 (x6)
|-------------------|-----------------|-----------------|
|*---------4-4-----*|-----------------|-----------------|
|*-----5-7-----7-5-*|-----------------|-5-5-5-5-5-5-5-5-|
|--7-7--------------|-0-0-0-0-0-0-0-0-|-----------------|
   1 & 2 & 3 & 4 &    1 & 2 & 3 & 4 &   1 & 2 & 3 & 4 &

		 (x2)
|-------------------|-----------------|-----------------|
|*---------4-4-----*|-----------------|-----------------|
|*-----5-7-----7-5-*|-5-5-5-5-5-5-5-5-|-7-7-7-7-7-7-7-7-|
|--7-7--------------|-----------------|-----------------|
   1 & 2 & 3 & 4 &    1 & 2 & 3 & 4 &   1 & 2 & 3 & 4 &

|-----------------|-----------------|
|-----------------|-----------------|
|-----------------|-----------------|
|-7-7-7-7-7-7-7-7-|-7-7-7-7-7-7-7-7-|
  1 & 2 & 3 & 4 &   1 & 3 & 3 & 4 &


(Verse)

|-----------------|-----------------|
|-----------------|-----------------|
|-----------------|-----------------|
|-7-7-7-7-7-7-7-7-|-7-7-7-7-7-7-7-7-|
  1 & 2 & 3 & 4 &   1 & 3 & 3 & 4 &

		 (x2)
|-------------------|-----------------|-----------------|
|*-----------------*|-----------------|-----------------|
|*-----------------*|-----------------|-----------------|(x2)
|--7-7-7-7-7-7-7-7--|-5-5-5-5-5-5-5-5-|-0-0-0-0-0-0-0-0-|
   1 & 2 & 3 & 4 &    1 & 3 & 3 & 4 &   1 & 2 & 3 & 4 &

		 (x2)                (x2)                (x2)
|-------------------|-------------------|-------------------|
|*-----------------*|*-----------------*|*-----------------*|
|*-----------------*|*-----------------*|*-----------------*|
|--7-7-7-7-7-7-7-7--|--5-5-5-5-5-5-5-5--|--7-7-7-7-7-7-7-7--|
   1 & 2 & 3 & 4 &     1 & 3 & 3 & 4 &     1 & 2 & 3 & 4 &

(Chorus)

|-----------------|-----------------|-----------------|
|-----------------|-----------------|-----------------|
|-----------------|-----------------|-----------------|
|-5-5-5-5-5-5-5-5-|-0-0-0-0-0-0-0-0-|-7-7-7-7-7-7-7-7-|
  1 & 3 & 3 & 4 &   1 & 2 & 3 & 4 &   1 & 2 & 3 & 4 &

|-----------------|-----------------|-----------------|
|-----------------|-----------------|-----------------|
|-----------------|-----------------|-5-5-5-5-5-5-5-5-|
|-7-7-7-7-7-7-7-7-|-0-0-0-0-0-0-0-0-|-----------------|
  1 & 3 & 3 & 4 &   1 & 2 & 3 & 4 &   1 & 2 & 3 & 4 &

|-----------------|-----------------|-----------------|---------|
|-----------------|-----------------|-----------------|---------|
|-----------------|-----------------|-----------------|-5-------|
|-7-7-7-7-7-7-7-7-|-7-7-7-7-7-7-7-7-|-0-0-0-0-0-0-0-0-|---------|
  1 & 3 & 3 & 4 &   1 & 2 & 3 & 4 &   1 & 2 & 3 & 4 &   1 2 3 4

(Solo)

|-------------------|
|*-----------------*|
|*-----------------*|(x4)
|--7-7-7-7-7-7-7-7--|
   1 & 2 & 3 & 4 &

		 (x2)
|-------------------|-----------------|-----------------|
|*---------4-4-----*|-----------------|-----------------|
|*-----5-7-----7-5-*|-----------------|-5-5-5-5-5-5-5-5-|
|--7-7--------------|-0-0-0-0-0-0-0-0-|-----------------|
   1 & 2 & 3 & 4 &    1 & 2 & 3 & 4 &   1 & 2 & 3 & 4 &

		 (x2)
|-------------------|-----------------|-----------------|
|*---------4-4-----*|-----------------|-----------------|
|*-----5-7-----7-5-*|-5-5-5-5-5-5-5-5-|-7-7-7-7-7-7-7-7-|
|--7-7--------------|-----------------|-----------------|
   1 & 2 & 3 & 4 &    1 & 2 & 3 & 4 &   1 & 2 & 3 & 4 &

		 (x2)                (x2)                (x2)
|-------------------|-------------------|-------------------|
|*-----------------*|*-----------------*|*-----------------*|
|*-----------------*|*-----------------*|*-----------------*|
|--7-7-7-7-7-7-7-7--|--0-0-0-0-0-0-0-0--|--7-7-7-7-7-7-7-7--|
   1 & 2 & 3 & 4 &     1 & 3 & 3 & 4 &     1 & 2 & 3 & 4 &

|-----------------|-----------------|
|-----------------|-----------------|
|-5-5-5-5-5-5-5-5-|-7-7-7-7-7-7-7-7-|
|-----------------|-----------------|
  1 & 2 & 3 & 4 &   1 & 2 & 3 & 4 &

O(ther Bit)
		 (x2)
|-------------------|-----------------|-----------------|
|*-----------------*|-----------------|-----------------|
|*-----------------*|-----------------|-----------------|(x2)
|--7-7-7-7-7-7-7-7--|-5-5-5-5-5-5-5-5-|-0-0-0-0-0-0-0-0-|
   1 & 2 & 3 & 4 &    1 & 3 & 3 & 4 &   1 & 2 & 3 & 4 &

Clipes