busca

21 Days Intro

Blink-182

Tom: F#
*=DISTORTION
/=SLIDE UP
\=SIDE DOWN

OK I KNOW THIS IS RIGHT BECAUSE I HAVE LISTENED TO THE SONG 100 TIMES.

BASS HITS THIS 42 SECONDS OR UNTIL THE GUITAR GOES INTO THE DISTORTION.
---------------------------------------------------------|
---------------------------------------------------------|
---5-----------------------------------------------------|
---------------------------------------------------------|

GUITAR PART- DONT START UNTIL 15 SECONDS INTO THE SONG OR AFTER THE BASS GUITAR HITS 5 
60 OR 70 TIMES.
---------------------------------------------------------|
---------------------------------------------------------|
-----2/11/7-7/11-11----2/11/9-9/7-7----------------------|4 TIMES.
---------------------------------------------------------|
A--------------------------------------------------------|
E--------------------------------------------------------|
ON THE LAST TIME OR THE 4TH TIME IT GOES LIKE THIS.
---------------------------------------------------------|
---------------------------------------------------------|
-----2/11/7-7/11-11----2/11/9-*9/7-7---------------------|1 TIME
---------------------------------------------------------|
A--------------------------------------------------------|
E--------------------------------------------------------|
THIS WHOLE THING IS DISTORTED
---------------------------------------------------------|
---------------------------------------------------------|
---*-2/11/7-7/11-11----2/11/9-9/7-7----------------------|2 TIMES
---------------------------------------------------------|
E--------------------------------------------------------|
A--------------------------------------------------------|


IF YOU HAVE ANY QUESTIONS E-MAIL ME AT * OR *

Clipes

Cifra Club Pro

Aproveite o Cifra Club com benefícios exclusivos e sem anúncios
7 dias grátis
Cifra Club Pro
Aproveite o Cifra Club com benefícios exclusivos e sem anúncios
7 dias grátis